Bear neccesities (uke)

(/) Slide Up  (\) Slide Down  (h) Hammer On  (p) Pull Off  (b) Bend (r) Release (v) Vibrato

E|-----------2--0--2--0--------3-----0-----1-----------2--------2--5h7--5--3--2--0--0--0--5--7--5--
B|-----0-----3-----1-----3--3--3--3-----3--0--3--0-----3-----3-------------------0--2--2-----------
G|--1--------2-----2-----------4-----------0--------2--2--2----------------------1--0--2-----------
D|--------0--4-----0-----------5-----------0-----------0-------------------------0--2--2-----------
A|-------------------------------------------------------------------------------------------------
E|-------------------------------------------------------------------------------------------------



E|--7------7--5--2-----3-----0-----5h7--------0-------5-------5------------------
B|--8--10--8--------3--3--3-----3-------3--3-----5/7-----5/7-----5/7--5--3--0--3\
G|--7------7-----------4----------------2--2-------------------------------------
D|--9------9-----------5---------------------------------------------------------
A|-------------------------------------------------------------------------------
E|-------------------------------------------------------------------------------
http://www.guitartabcreator.com
Guitar Tab Creator is intended to store guitar tab created through the tool. It currently does not support in-line text editing. Any text you place in here will be lost. If you need to comment on your tab, please use the "Tab Notes" section located below.