Untitled

(/) Slide Up  (\) Slide Down  (h) Hammer On  (p) Pull Off  (b) Bend (r) Release (v) Vibrato

E|-------------------------------------------------------------
B|-------------------------------------------------------------
G|-------------------------------------------------------------
D|-------------------------------------------------------------
A|--11--11--11--11--11--9--11--12--12--12--12--12--12--12--12--
E|--0---0---0---0---0---0--0---10--10--10--10--10--10--10--10--



E|--------------------------------------------------------------------
B|--------------------------------------------------------------------
G|--------------------------------------------------------------------
D|--------------------------------------------------------------------
A|--12--12--12--12--12--11--14--11--11--11--11--11--11--11--11--11----
E|--10--10--10--10--10--10--10--10--0---0---0---0---0---0---0---0-----



E|------------------------------------------------------------------
B|------------------------------------------------------------------
G|------------------------------------------------------------------
D|------------------------------------------------------------------
A|--11--11--11--11--11--11--11--11--12--12--12--12--12--12--12--12--
E|--0---0---0---0---0---0---0---0---10--10--10--10--10--10--10--10--



E|------------------------------------------------------------------
B|------------------------------------------------------------------
G|------------------------------------------------------------------
D|------------------------------------------------------------------
A|--12--12--12--12--12--12--12--12--11--11--11--11--11--11--11--11--
E|--10--10--10--10--10--10--10--10--0---0---0---0---0---0---0---0---



E|--------------------------------
B|--------------------9--9--7--9--
G|--4--------6--------9--9--7--9--
D|--5--------7--------9--9--7--9--
A|--5--------7--------7--7--5--7--
E|--3--------5--------------------
http://www.guitartabcreator.com
Guitar Tab Creator is intended to store guitar tab created through the tool. It currently does not support in-line text editing. Any text you place in here will be lost. If you need to comment on your tab, please use the "Tab Notes" section located below.