Filters

(/) Slide Up  (\) Slide Down  (h) Hammer On  (p) Pull Off  (b) Bend (r) Release (v) Vibrato


E|----------------------------------------------------------------------------
B|-------------------------------------------------------------------------3--
G|-------------------------------------------------------------------------2--
D|--4--4--x--2--4--0--2--2--x--0h2p0--x---------------------------------0--0--
A|--5--5--x-----------3--3--x---------x--2--2--0--2--2h3--3--3p2--2--2--0--0--
E|---------------------------------------3--3--3--3--3----3--3----3--3-----2--



E|--------------------------------------------0--0--x--0--0--
B|--------------------------------------------1--1--x--1--1--
G|--5--5--7--7--7--7--x--x--7--7--5--5--7--7--0--0--x--0--0--
D|--2--2--4--4--5--5--x--x--5--5--2--2--4--4--2--2--x--2--2--
A|--3--3--5--5--7--7--x--x--7--7--3--3--5--5--0--0--x--0--0--
E|--------------0--0--x--x--0--0-----------------------------
http://www.guitartabcreator.com
Guitar Tab Creator is intended to store guitar tab created through the tool. It currently does not support in-line text editing. Any text you place in here will be lost. If you need to comment on your tab, please use the "Tab Notes" section located below.