Strawberry Swing acoustic cover

(/) Slide Up  (\) Slide Down  (h) Hammer On  (p) Pull Off  (b) Bend (r) Release (v) Vibrato


E|--11--13--16--16--16--13----------
B|--------------------------16------
G|------------------------------14--
D|----------------------------------
A|----------------------------------
E|----------------------------------



E|----------------------------------
B|--11--13--16--16--16--13----------
G|--------------------------14------
D|------------------------------13--
A|----------------------------------
E|----------------------------------
http://www.guitartabcreator.com
Guitar Tab Creator is intended to store guitar tab created through the tool. It currently does not support in-line text editing. Any text you place in here will be lost. If you need to comment on your tab, please use the "Tab Notes" section located below.