Mario

(/) Slide Up  (\) Slide Down  (h) Hammer On  (p) Pull Off  (b) Bend (r) Release (v) Vibrato


E|------------------------------------------------------------------------------------
B|----------------------------------------------------------------------------12--13--
G|--11--11--11--11--11--12--12--------------------------------------------12----------
D|------------------------------------14--14--10--10--11--12--10------10--------------
A|------------------------------------------------------------------------------------
E|------------------------------------------------------------------------------------



E|------------------------------------12--11--10--------------------------------------
B|------12----------------------------------------12--13------------------------------
G|--14------14------10------------------------------------------10--14------------10--
D|--------------14------12----------------------------------14------------10--14------
A|------------------------------------------------------------------------------------
E|------------------------------------------------------------------------------------



E|--12--11--10------------13--13--13----12--11--10--------------------------------------
B|--------------12--13------------------------------12--13------------------------------
G|----------------------------------------------------------------10--14------------10--
D|------------------------------------------------------------14------------10--14------
A|--------------------------------------------------------------------------------------
E|--------------------------------------------------------------------------------------



E|------------------------------------------------------------------------------------
B|--------------------------------------11------------------------------------11------
G|--14--10--------------13--13--13--13------12----------------13--13--13--13------12--
D|----------14----------------------------------14--14--10----------------------------
A|------------------------------------------------------------------------------------
E|------------------------------------------------------------------------------------



E|--------------------------------------------------------------------
B|------------------11------------------------------------------------
G|--13--13--13--13------12----------------11--11--11--11--11--12--12--
D|--------------------------14--14--10--------------------------------
A|--------------------------------------------------------------------
E|--------------------------------------------------------------------



E|----------------------------------------13--13--13--12----------------------
B|--13------------------13--13----------------------------15--13--------------
G|------14----------10----------10----12--------------------------14--10------
D|----------14--14--------------------------------------------------------14--
A|----------------------------------------------------------------------------
E|----------------------------------------------------------------------------



E|--------------------------------------------------------------------------------
B|--13------------------13--13--------------15--15--15--13--12--------------------
G|------14----------10----------10------12------------------------12--------------
D|----------14--14----------------------------------------------------14--14--10--
A|--------------------------------------------------------------------------------
E|--------------------------------------------------------------------------------



E|--------------------------------------------------------
B|--------------------12----------11----------------------
G|----------------14------14--13------13------------------
D|--14--14--10--------------------------------14--12--14--
A|--------------------------------------------------------
E|--------------------------------------------------------
http://www.guitartabcreator.com
Guitar Tab Creator is intended to store guitar tab created through the tool. It currently does not support in-line text editing. Any text you place in here will be lost. If you need to comment on your tab, please use the "Tab Notes" section located below.