Hook Up Express

(/) Slide Up  (\) Slide Down  (h) Hammer On  (p) Pull Off  (b) Bend (r) Release (v) Vibrato


E|--------0-----------
B|-----0-----0-----0--
G|--------------1-----
D|--2-----------------
A|--------------------
E|--------------------



E|--------5-----------
B|-----5-----5-----5--
G|--6-----------6-----
D|--------------------
A|--------------------
E|--------------------



E|--------
B|--2--4--
G|--2--4--
D|--2--4--
A|--------
E|--------
http://www.guitartabcreator.com
Guitar Tab Creator is intended to store guitar tab created through the tool. It currently does not support in-line text editing. Any text you place in here will be lost. If you need to comment on your tab, please use the "Tab Notes" section located below.