I Don't Want To Set The World On Fire by The Ink Spots

(/) Slide Up  (\) Slide Down  (h) Hammer On  (p) Pull Off  (b) Bend (r) Release (v) Vibrato
E|-----------------------------------------------
B|-----------------------------------------------
G|--------------------------------------2--1--1--
D|--------0-----------0-----------0--------------
A|-----3-----3-----3-----3-----3-----3-----------
E|--1-----------2-----------3--------------------



E|--------------------------------------------------------------
B|-----1--------------1--------3--------1-----1-----1--2--3-----
G|--2--------------2-----4--3-----3--2-----2-----2-----------2--
D|-----------0--3-----------------------------------------------
A|--------3-----------------------------------------------------
E|--------------------------------------------------------------



E|--------------------------------------------------------------
B|-----1--------------1--------3--------1-----1-----1--2--3-----
G|--2--------------2-----4--3-----3--2-----2-----2--------------
D|-----------0--3--------------------------------------------3--
A|--------3-----------------------------------------------------
E|--------------------------------------------------------------



E|--------------------------------------------------------------
B|--------------3--3--------------3--------------------3--3-----
G|-----0--0--0-----------0--0--0-----4--4--3--3--2--2--------2--
D|--3-----------------3-----------------------------------------
A|--------------------------------------------------------------
E|--------------------------------------------------------------



E|--------------0--0--------------0--------------------------0-----------
B|-----------------------------------3-----3-----3-----3--4-----3--2--1--
G|--0--2--2--2--------0--2--2--2--------4-----4-----4--------------------
D|-----------------------------------------------------------------------
A|-----------------------------------------------------------------------
E|-----------------------------------------------------------------------



E|-----------------------------------------------------------1--
B|-----1--------------1--------3--------1-----1-----1--2--3-----
G|--2--------------2-----4--3-----3--2-----2-----2--------------
D|-----------0--3-----------------------------------------------
A|--------3-----------------------------------------------------
E|--------------------------------------------------------------
http://www.guitartabcreator.com
Guitar Tab Creator is intended to store guitar tab created through the tool. It currently does not support in-line text editing. Any text you place in here will be lost. If you need to comment on your tab, please use the "Tab Notes" section located below.