Avast Fluttershy's Ass By WoodenToaster

(/) Slide Up  (\) Slide Down  (h) Hammer On  (p) Pull Off  (b) Bend (r) Release (v) Vibrato
E|-----------------------------0-----2--------------------
B|-----------------------2--4-----4-----2--4--2--4--2--0--
G|--1-----1--3--4-----4-----------------------------------
D|-----1-----------1--------------------------------------
A|--------------------------------------------------------
E|--------------------------------------------------------



E|-----------------------------------------------------
B|-----------------------------------------------------
G|--1--1--1-----------------------------3-----3--4--1--
D|-----------1--2--2--4--2--1--1--2--4-----4-----------
A|-----------------------------------------------------
E|-----------------------------------------------------
http://www.guitartabcreator.com
Guitar Tab Creator is intended to store guitar tab created through the tool. It currently does not support in-line text editing. Any text you place in here will be lost. If you need to comment on your tab, please use the "Tab Notes" section located below.