La Rossignol - guitar 2

(/) Slide Up  (\) Slide Down  (h) Hammer On  (p) Pull Off  (b) Bend (r) Release (v) Vibrato
E|--0--------2--|--3-----5-----|--7-----5--3--|--2----3----|--2--0--0-----|--------------|--
B|--0-----------|--------------|--------------|--3---------|--------------|-----5--4-----|--
G|--0-----------|--------------|-----0--------|-------0----|--------4--5--|-----4--------|--
D|-----2--------|-----2-----4--|--------------|------------|--------------|-----------2--|--
A|--------------|--------------|--------0-----|--2---------|--0-----------|--2-----------|--
E|--0-----0-----|--------------|--------------|-------3----|--------3-----|--------------|--



E|-----0--------|-------------------0--2--|--3--2--0--2--3--2--3--5--|--7----5--3--2--0--------|--
B|-----0--------|----------0--2--3--------|--------------------------|-------------------3--2--|--
G|-----1-----2--|--1----2-----------------|--------------------------|-------------------------|--
D|--------2-----|-------------------------|--------------------------|-------------------------|--
A|--------------|-------------------------|--------------------------|-------------------------|--
E|--0-----------|-------------------------|--------------------------|-------------------------|--



E|-------------------0----|-----0--2-----------------|--------0--2--3--0--5--3--|--2--0-----------
B|--0--2--3----1--3-------|--3--------3--0--1--3--0--|--1--3--------------------|--------4--2-----
G|------------------------|--------------------------|--------------------------|-----------------
D|------------------------|--------------------------|--------------------------|-----------------
A|------------------------|--------------------------|--------------------------|-----------------
E|------------------------|--------------------------|--------------------------|-----------------



E|-----0--2----|--0----------------------|-----0-------|-----0--2--3--|--2--0-------|--7--7--7--7--
B|--4----------|-------3--2--0-----------|-----0-------|--4-----------|--------4----|--------------
G|-------------|----------------2--1-----|-----1-------|--------------|-------------|--------------
D|-------------|----------------------4--|--------2----|--4-----------|--------4----|--------------
A|-------------|-------------------------|-------------|--2-----------|--------2----|--------------
E|-------------|-------------------------|--0----------|--------------|-------------|--------------



E|--7----7----|--5----3----2----0--2--|--3--0--2--3--5--2--3--5--|--3---------------------|--
B|------------|-----------------------|--------------------------|-------------0--1--3----|--
G|------------|-----------------------|--------------------------|-------0--2-------------|--
D|------------|-----------------------|--------------------------|------------------------|--
A|------------|-----------------------|--------------------------|------------------------|--
E|------------|-----------------------|--------------------------|------------------------|--



E|--------0-------0--2----|--3--2--0--2--3----2--3--|--5--3--2--0-----0--2----|--0-----0--2--
B|--1--3-------3----------|-------------------------|--------------4----------|-----4--------
G|------------------------|-------------------------|-------------------------|--------------
D|------------------------|-------------------------|-------------------------|--------------
A|------------------------|-------------------------|-------------------------|--------------
E|------------------------|-------------------------|-------------------------|--------------



E|--3--2--3--5--|--7--7--7--7--7--7--7--7--|--5--3--2----|-----0--2--3--|--2--0-----2--|--
B|--------------|--------------------------|-------------|--4-----------|--------4-----|--
G|--------------|--------------------------|-------------|--------------|--------------|--
D|--------------|--------------------------|-------------|--4-----------|--------4-----|--
A|--------------|--------------------------|-------------|--2-----------|--------2-----|--
E|--------------|--------------------------|-------------|--------------|--------------|--



E|--------3--2--|-----3-----7--|-----8--5-----|--7--------5--3--|--2--0--0-----|--0----------|--
B|--1--0--------|-----3--------|-----5--7-----|--------5--------|--------0--4--|--0----------|--
G|--------2-----|-----4--------|--------------|-----------------|--------------|--1----------|--
D|--2-----0-----|--------5-----|--7-----------|-----5-----------|--------4-----|-----2-------|--
A|--------------|--------------|-----------5--|-----------------|--0-----2-----|-------------|--
E|--------------|--3-----------|--------------|-----------------|--------------|--0-----0----|--
http://www.guitartabcreator.com
Guitar Tab Creator is intended to store guitar tab created through the tool. It currently does not support in-line text editing. Any text you place in here will be lost. If you need to comment on your tab, please use the "Tab Notes" section located below.