God is able

(/) Slide Up  (\) Slide Down  (h) Hammer On  (p) Pull Off  (b) Bend (r) Release (v) Vibrato

E|-7-9-7-7-9-9-7-7-11-12-12-11-9-7-7-9-9-7-7-------7-9-7-7-9-9-7-7-11-12-12-11-9-7-7-9-9-7-7-------7-
B|-7-----------------------------------------7-9-9-------------------------------------------7-9-9---
G|-8-------------------------------------------------------------------------------------------------
D|-9-------------------------------------------------------------------------------------------------
A|-9-------------------------------------------------------------------------------------------------
E|-7-------------------------------------------------------------------------------------------------



E|--------------------------6-----------------------4--------------------------6--
B|-----------7-----------------7--------7--------------5-----------7--------------
G|-----4--------8-----4--------------4-----8-----4-----------4-----------4--------
D|--8-----8--------8-----8--------6-----------6-----------8-----8-----8-----8-----
A|--------------------------------------------------------------------------------
E|--------------------------------------------------------------------------------
http://www.guitartabcreator.com
Guitar Tab Creator is intended to store guitar tab created through the tool. It currently does not support in-line text editing. Any text you place in here will be lost. If you need to comment on your tab, please use the "Tab Notes" section located below.