To make you feet my love

(/) Slide Up  (\) Slide Down  (h) Hammer On  (p) Pull Off  (b) Bend (r) Release (v) Vibrato
E|--------------3--2---------------------------------------------------------------------------3-----|--
B|--3--3-----3-----3--3---------1--1----------------1--1-----1--1--------0h3-------0--0--1--1--0-----|--
G|--0--0--0--------2--2---------2--2--------0h2-----0--0----------------------0h2--0--0--0--0--0-----|--
D|-----------------0-----0h2p0--3--3-----3-------3--2--2--0--1--1-----1------------0--0--1--0--0-----|--
A|------------------------------3--3--3-------------3--3-----3--3--3-------0-------------0--3--------|--
E|---------------------------------------------------------------------------------3--3--------3-----|--



E|-----------------------3--3--3--------------------------------------------------------|--
B|-----------------------------------1p0--3-----------------------------3--3--3--1p0h1--|--
G|------------0h2--------2--2--2-----0-------------2--2-----------------2--2--2---------|--
D|-------0h2------------------------------------0--------------0-----0------------------|--
A|--0h2---------------0-----------0----------0--------------0---------------------------|--
E|-----------------3----------------------2--------------2--------1---------------------|--



E|----------------------------------------------------------------------------------|--
B|--1------------------------1--1h3--1p0-----0-----------------------------------0--|--
G|--------0--0---------------0------------2--------0-----0-----------------0--0-----|--
D|-----2--------2---------1---------------------0-----2-----------2--0-----2--------|--
A|--3--------------0h2h3----------0----------------------------2--------0-----------|--
E|-------------------------------------------3--------------0-----------------------|--



E|--------------|--
B|--------------|--
G|--0--0--0-----|--
D|--1--1--0--0--|--
A|--3--------0--|--
E|-----------3--|--



E|---------------------------|-----
B|-----------------0h1p0-----|-----
G|------------0h2---------2--|-----
D|-------0h2-----------------|-----
A|--0h2----------------------|-----
E|---------------------------|-----



E|------------------------------------3--3--3--3--3--2p0--------------------------------------
B|-----------0h1p0--------------------3--3--3--3--3-------3-----------------------------0-----
G|-----0------------0h2p0-------------0-----0-----0----------4-----0-----------2--2--2--------
D|--0-----0----------------2p0-----------2----------------------3-----0--------1--1--1--------
A|------------------------------0--3-----------3-----0----2--------------0--2-----------3-----
E|-----------------------------------------------------------------3--------------------------



E|-------------------------------|--
B|-------------------------------|--
G|--0h2--------0--------0-----0--|--
D|----------0-----0--------------|--
A|-------------------0-----2-----|--
E|-------3-----------------------|--
http://www.guitartabcreator.com
Guitar Tab Creator is intended to store guitar tab created through the tool. It currently does not support in-line text editing. Any text you place in here will be lost. If you need to comment on your tab, please use the "Tab Notes" section located below.