Of Mountains

-12-  Chord held with left hand
-10-
-12-
----
----
----


2 4(L) 2
-t15/17p12h13p12------------------t13/12---------------------
----------------t15p10h13p10------------t17p10h13------------
----------------------------t14p12---------------------------
------------------------------------------------------------- 3x
-------------------------------------------------------------
-------------------------------------------------------------

2 4(L) 2
-t15/17p12h13p12---------t15--
----------------t15p10h13-----
------------------------------
------------------------------
------------------------------
------------------------------

---------------------------------------12----15------15------
-------13------15-------15---------15----15----13--13--13--13
---14------14-----14--14--14--14-14--14----14----14------14--
-12--12------12-----12------12-------------------------------
-------------------------------------------------------------
-------------------------------------------------------------

---------------------------------------12-----15
-------13------15-------15---------15----15---13
---14------14-----14--14--14--14-14--14----14-14
-12--12------12-----12------12------------------
------------------------------------------------
------------------------------------------------

2 2 3
-0--0--0--0-----0--0--0--0------------0--0--0--0-----0--0--0--0--(12)-t15/17p12------t20p12--
-13-13-13-13----13-13-13-13-----------13-13-13-13----13-13-13-13-(13)----------t17/18--------
-10-10-10-10----10-10-10-10-----------10-10-10-10----10-10-10-10-(10)------------------------
-12-12-12-12----12-12-12-12-----------12-12-12-12----12-12-12-12-(12)------------------------
-0--0--0--0-----0--0--0--0------------0--0--0--0-----0--0--0--0------------------------------
-0--0--0--0-----0--0--0--0---0-0-0----0--0--0--0-----0--0--0--0------------------------------

2 2
-0--0--0--0-----0--0--0--0------------0--0--0--0-----0--0--0--0--(12)-t15/17p12--------------
-13-13-13-13----13-13-13-13-----------13-13-13-13----13-13-13-13-(13)----------t17/18--------
-10-10-10-10----10-10-10-10-----------10-10-10-10----10-10-10-10-(10)------------------------
-12-12-12-12----12-12-12-12-----------12-12-12-12----12-12-12-12-(12)------------------------
-0--0--0--0-----0--0--0--0------------0--0--0--0-----0--0--0--0------------------------------
-0--0--0--0-----0--0--0--0---0-0-0----0--0--0--0-----0--0--0--0------------------------------

-0--0--0--0-----0--0--0--0------------0--0--0--0-----0--0--0--0-----------------
-13-13-13-13----13-13-13-13-----------13-13-13-13----13-13-13-13---------13-----
-10-10-10-10----10-10-10-10-----------10-10-10-10----10-10-10-10-----10----10-10
-12-12-12-12----12-12-12-12-----------12-12-12-12----12-12-12-12---12--12----12-
-0--0--0--0-----0--0--0--0------------0--0--0--0-----0--0--0--0-----------------
-0--0--0--0-----0--0--0--0---0-0-0----0--0--0--0-----0--0--0--0-----------------

-0------|-15----|-12----| |----
-13-----|-13----|-13----| |----
-10-----|-10----|-10----| x2 |----
-0--x16-|-0--x8-|-0--x8-| |----
-0------|-0-----|-0-----| |-1-1
-0------|-0-----|-0-----| |-1-1
. .


---------------------------------------12----15------15---------
-------13------15-------15---------15----15----13--13--13--13---
---14------14-----14--14--14--14-14--14----14----14------14-----
-12--12------12-----12------12----------------------------------
-------------------------------------------------------------1-1
-------------------------------------------------------------1-1
. .

-----------------------------------------------------------------------------------
------------8----------------------8------------------------8----------------------
---7---------7------------7---------7--------------7---------7------------7--------
----5---------5------------5---------5--------------6---------5------------6-------
-----6---------6-5----------6---------6-5------------5---------6-5----0-0---5------
------0--0--------1b-0--0----0--0--------1b-000--0----0--0--------1b--0-0----0--0--
.. . .

----------------
-8--------------
---7------------
----5-----------
-----6-5--------
--------000--0--
..

----------------------------------------------------------------
----------------------------------------------------------------
-6/7----------------------------------7-------------------------
----6---------------------------------5-------------------------
-----5----------------------------000-6-0000-00----------0-0-0-0
------b1r-0-00--0000-00b1r0-000-0-000---0000-00--0-0-b1r-0-0-0-0
.. .... .. . ... . ... .... .. . . . .

-5-5-5-5-5-5-5-5-6-6-6-6-6-6-6-6-5-5-5-5-5-5-5-5-6-6-6-6-6-6-6-6-
-8-8-8-8-8-8-8-8-8-8-8-8-8-8-8-8-8-8-8-8-8-8-8-8-8-8-8-8-8-8-8-8-
-7-7-7-7-7-7-7-7-7-7-7-7-7-7-7-7-7-7-7-7-7-7-7-7-7-7-7-7-7-7-7-7-
-0-0-0-0-0-0-0-0-0-0-0-0-0-0-0-0-0-0-0-0-0-0-0-0-0-0-0-0-0-0-0-0-
-6-6-6-6-6-6-6-6-6-6-6-6-6-6-6-6-6-6-6-6-6-6-6-6-6-6-6-6-6-6-6-6-
-----------------------------------------------------------------

----------------------------------------
----------------------------------------
----------------------------------------
----------------------------------------
----------------------------------------
----------------------------------------
-0-000-1b-0-1b-0-00-1b-000-1b-0-1b-0-00-
... . . .. ... . . ..

---------------------------
---------------------------
---------------------------
---------------------------
---------------------------
-0-000-1b-0-1b--b1r-000-1b-
... . ...

-5--5-5-5-5-8--8-8-8-8
-3--3-3-3-3-5--5-5-5-5
-5--5-5-5-5-7--7-7-7-7
-3--3-3-3-3-5--5-5-5-5
-3--3-3-3-3-5--5-5-5-5
-3--3-3-3-3-5--5-5-5-5

-------------------------------------------------------------------------------------------------
-------------------------------------------------------------------------------------------------
-10-9---------9-10-9---------9-10-9---------9-12-10-9-10-9--------9-10-9---------9-10-9---------9
------10-7-10--------10-7-10--------10-7-10---------------10-7-10--------10-7-10--------10-7-10--
-------------------------------------------------------------------------------------------------
-------------------------------------------------------------------------------------------------

------------
------------
-14-12-10-9-
------------
------------
------------

-----------------------------------------------------------------------------------------
-----------------------------------------------------------------------------------------
-----------------------------------------------------------------------------------------
-----------------------------------------------------------------------------------------
-0--0-0-0-0-0--0-0-0-0-0--0-0-0-0-0--0-0-0-0-3--3-3-3-3-3--3-3-3-3-5--5-5-5-5-5--5-5-5-5-
-0--0-0-0-0-0--0-0-0-0-0--0-0-0-0-0--0-0-0-0-3--3-3-3-3-3--3-3-3-3-5--5-5-5-5-5--5-5-5-5-
. . . . . . . . . . . . . . . . . . . . . . . . . . . . . . . . . . . . . . . .

-----------------------------------------------------
-----------------------------------------------------
-10-9---------9-10-9-----------------12-10-9---------
------10-7-10--------10-7-10-12-10-----------10-7-10-
-----------------------------------------------------
-----------------------------------------------------
Guitar Tab Creator is intended to store guitar tab created through the tool. It currently does not support in-line text editing. Any text you place in here will be lost. If you need to comment on your tab, please use the "Tab Notes" section located below.