Illusions

Song: Illusions
Artist: Of Glaciers
Album: Of Mountains & Monuments


(/) Slide Up (\) Slide Down (h) Hammer On (p) Pull Off (b) Bend (r) Release (v) Vibrato (t)Tap
(.) Palm Mute

For all tapping parts, the chords and tapping lines are shown separately.
The numbers above the tapping lines illustrate which finger is used to tap the note.


B, F#, B, E, G#, C#

Lead (Distortion w/ 1/4 note delay)

-12-
-10-
-10-
-8--
----
----
2 2 2
------------------------------12t13p12----------------------------
------------10---------------------------t13/15p10----------------
-----10---------10-----10-----------------------------------------
--8------8----------8------8-------------------------t14p10/------
------------------------------------------------------------------
------------------------------------------------------------------

-15-
-13-
-10-
-12-
----
----
2 2 3 2
----------------------------------15t17p15----------t20p15--------
--------------13------------------------------t17/18-------t17----
------10----------10------10--------------------------------------
--12------12----------12------12----------------------------------
------------------------------------------------------------------
------------------------------------------------------------------

-12-
-10-
-10-
-8--
----
----
2 2
------------------------------12t13p12-------------------
------------10-------------------------t13p10------------
-----10---------10-----10---------------------9br--------
--8------8----------8------8----------------------10-----
---------------------------------------------------------
---------------------------------------------------------

-8--
-5--
-7--
-5--
----
----
2 2 2
--------------------------8t10p8---------------------
-----------5---------------------t10p5h6p5-----------
-----7--------7-----7--------------------------------
--5-----5--------5-----5-------------------t10/------
-----------------------------------------------------
-----------------------------------------------------




-----------------------------------------------------------------------------------------------
-----------------------------------------------------------------------------------------------
-----------------------------------------------------------------------------------------------
10-10-10-10-10-10-10-10-10-10-10-10-10-10-10-10-14-14-14-14-14-14-14-14-14-14-14-14-14-14-14-14
12-12-12-12-12-12-12-12-12-12-12-12-12-12-12-12-15-15-15-15-15-15-15-15-15-15-15-15-15-15-15-15
8--8--8--8--8--8--8--8--8--8--8--8--8--8--8--8--12-12-12-12-12-12-12-12-12-12-12-12-12-12-12-12


---------------------------------------------------------------------------------------------
---------------------------------------------------------------------------------------------
---------------------------------------------------------------------------------------------
10-10-10-10-10-10-10-10-10-10-10-10-10-10-10-10-7-7-7-7-7-7-7-7-7-7-7-7-7-7-7-7--0-----------
12-12-12-12-12-12-12-12-12-12-12-12-12-12-12-12-8-8-8-8-8-8-8-8-8-8-8-8-8-8-8-8--0-----------
8--8--8--8--8--8--8--8--8--8--8--8--8--8--8--8--5-5-5-5-5-5-5-5-5-5-5-5-5-5-5-5--0-----------




0--0--0------0--0--0--0--0---------0--0--0------0--0--0--0--0---0---------
10-10-10-----10-10-10-10-10--------10-10-10-----10-10-10-10-10--10--------
10-10-10-----10-10-10-10-10--------10-10-10-----10-10-10-10-10--10--------
7--7--7------7--7--7--7--7---------7--7--7------7--7--7--7--7---7---------
8--8--8--0-0-8--8--8--8--8--0-0-0--8--8--8--0-0-8--8--8--8--8---8--0--0-0-
---------0-0----------------0-0-0-----------0-0-----------------8--0--0-0-
. . . . . . . . . .
3-3-3------3-3-3-3-3-------3-3-3------3-3-3-3-3--3----------
5-5-5------5-5-5-5-5-------5-5-5------5-5-5-5-5--5----------
5-5-5------5-5-5-5-5-------5-5-5------5-5-5-5-5--5----------
3-3-3------3-3-3-3-3-------3-3-3------3-3-3-3-3--3----------
3-3-3--3-3-3-3-3-3-3-3-3-3-3-3-3--3-3-3-3-3-3-3--3--3-------
-------3-3-----------3-3-3--------3-3---------------3--0-b1r
. . . . . . . . .

-----
-5---
--5--
---3-
-----
-----




3-3-3-3-3-3-3-3-3-3-3-3-3-3-3-3-8-8-8-8-8-8-8-8-7-7-7-7-7-7-7-7-----------------------------7--
5-5-5-5-5-5-5-5-3-3-3-3-3-3-3-3-5-5-5-5-5-5-5-5-5-5-5-5-5-5-5-5-------------5----------------5-
5-5-5-5-5-5-5-5-5-5-5-5-5-5-5-5-7-7-7-7-7-7-7-7-7-7-7-7-7-7-7-7--------------5----------------5
3-3-3-3-3-3-3-3-3-3-3-3-3-3-3-3-5-5-5-5-5-5-5-5-5-5-5-5-5-5-5-5---------------3----------------
3-3-3-3-3-3-3-3-3-3-3-3-3-3-3-3-5-5-5-5-5-5-5-5-5-5-5-5-5-5-5-5--------------------------------
3-3-3-3-3-3-3-3-3-3-3-3-3-3-3-3-5-5-5-5-5-5-5-5-5-5-5-5-5-5-5-5-000-0-0-0--0---0-0--0-0-0--0---
... . . . . . . . . . .

3-3-3-3-3-3-3-3-3-3-3-3-3-3-3-3-8-8-8-8-8-8-8-8-7-7-7-7-7-7-7-7-
5-5-5-5-5-5-5-5-3-3-3-3-3-3-3-3-5-5-5-5-5-5-5-5-5-5-5-5-5-5-5-5-
5-5-5-5-5-5-5-5-5-5-5-5-5-5-5-5-7-7-7-7-7-7-7-7-7-7-7-7-7-7-7-7-
3-3-3-3-3-3-3-3-3-3-3-3-3-3-3-3-5-5-5-5-5-5-5-5-5-5-5-5-5-5-5-5-
3-3-3-3-3-3-3-3-3-3-3-3-3-3-3-3-5-5-5-5-5-5-5-5-5-5-5-5-5-5-5-5-
3-3-3-3-3-3-3-3-3-3-3-3-3-3-3-3-5-5-5-5-5-5-5-5-5-5-5-5-5-5-5-5-

7--7--7--7--7--7--7--7--7--7--7--7--7--7--7--7--10-10-10-10-10-10-10-10-12-12-12-12-12-12-12-12-
8--8--8--8--8--8--8--8--8--8--8--8--8--8--8--8--8--8--8--8--8--8--8--8--8--8--8--8--8--8--8--8--
9--9--9--9--9--9--9--9--9--9--9--9--9--9--9--9--9--9--9--9--9--9--9--9--9--9--9--9--9--9--9--9--
10-10-10-10-10-10-10-10-10-10-10-10-10-10-10-10-7--7--7--7--7--7--7--7--7--7--7--7--7--7--7--7--
7--7--7--7--7--7--7--7--7--7--7--7--7--7--7--7--7--7--7--7--7--7--7--7--7--7--7--7--7--7--7--7--
7--7--7--7--7--7--7--7--7--7--7--7--7--7--7--7--7--7--7--7--7--7--7--7--7--7--7--7--7--7--7--7--

7--7--7--7--7--7--7--7--7--7--7--7--7--7--7--7--10-10-10-10-10-10-10-10-8--8--8--8--8--8--8--8--
8--8--8--8--8--8--8--8--8--8--8--8--8--8--8--8--8--8--8--8--8--8--8--8--8--8--8--8--8--8--8--8--
9--9--9--9--9--9--9--9--9--9--9--9--9--9--9--9--9--9--9--9--9--9--9--9--9--9--9--9--9--9--9--9--
10-10-10-10-10-10-10-10-10-10-10-10-10-10-10-10-7--7--7--7--7--7--7--7--7--7--7--7--7--7--7--7--
7--7--7--7--7--7--7--7--7--7--7--7--7--7--7--7--7--7--7--7--7--7--7--7--7--7--7--7--7--7--7--7--
7--7--7--7--7--7--7--7--7--7--7--7--7--7--7--7--7--7--7--7--7--7--7--7--7--7--7--7--7--7--7--7--

3-3-3-3-3-3-3-3-3-3-3-3-3-3-3-3-3-3-3-3-3-3-3-3-3-3-3-3-3-3-3-3
5-5-5-5-5-5-5-5-5-5-5-5-5-5-5-5-3-3-3-3-3-3-3-3-5-5-5-5-5-5-5-5
5-5-5-5-5-5-5-5-5-5-5-5-5-5-5-5-5-5-5-5-5-5-5-5-5-5-5-5-5-5-5-5
3-3-3-3-3-3-3-3-3-3-3-3-3-3-3-3-3-3-3-3-3-3-3-3-3-3-3-3-3-3-3-3
3-3-3-3-3-3-3-3-3-3-3-3-3-3-3-3-3-3-3-3-3-3-3-3-3-3-3-3-3-3-3-3
3-3-3-3-3-3-3-3-3-3-3-3-3-3-3-3-3-3-3-3-3-3-3-3-3-3-3-3-3-3-3-3

8-8-8-8-8-8-8-8-8-8-8-8-8-8-8-8-7-7-7-7-7-7-7-7-7-7-7-7-7-7-7-7
5-5-5-5-5-5-5-5-5-5-5-5-5-5-5-5-5-5-5-5-5-5-5-5-5-5-5-5-5-5-5-5
7-7-7-7-7-7-7-7-7-7-7-7-7-7-7-7-7-7-7-7-7-7-7-7-7-7-7-7-7-7-7-7
5-5-5-5-5-5-5-5-5-5-5-5-5-5-5-5-5-5-5-5-5-5-5-5-5-5-5-5-5-5-5-5
5-5-5-5-5-5-5-5-5-5-5-5-5-5-5-5-5-5-5-5-5-5-5-5-5-5-5-5-5-5-5-5
5-5-5-5-5-5-5-5-5-5-5-5-5-5-5-5-5-5-5-5-5-5-5-5-5-5-5-5-5-5-5-5



------------------------------------------------
------------------------------------------------
------------------------------------------------
------------------------------------------------
------------------------------------------------
000--0-0-0---0-0--0-0--0-0---00000--0-0--0-0000-
... . . . . . . . ..... . . ....


Bridge (Clean w/ 1/4 note delay)
---------------------------------------------------
-----------0--------------10-----------8-----------
-----9--------9-----9---------9-----9-----9-----9--
--7-----7--------7-----7---------7-----------7-----
---------------------------------------------------
---------------------------------------------------

-----------------------10-----------8-----------
--------0------------------0-----------0--------
-----9-----9-----9------------9-----------9-----
--7-----------7-----7------------7-----------7--
------------------------------------------------
------------------------------------------------

--------------------------------------------------
-----------0--------------5-----------3-----------
-----5--------5-----5--------5-----5-----5-----5--
--3-----3--------3-----3--------3-----------3-----
--------------------------------------------------
--------------------------------------------------

--------------------------5-----------3-----------
-----------0-----------------0-----------3--------
-----5--------5-----5-----------5-----------5-----
--3-----3--------3-----3-----------3-----------3--
--------------------------------------------------
--------------------------------------------------


Ebow Lead (Ebow with 1/4 note delay and various reverbs)

------------------------------------
------------------------------------
-12---14---9---7---12---14---16br---
------------------------------------
------------------------------------
------------------------------------



7--7--7--7--7--7--7--7--7-7-7-7-7-7-7-7-7-7-7-7-7
8--8--8--8--8--8--8--8--8-8-8-8-8-8-8-8-8-8-8-8-8
9--9--9--9--9--9--9--9--9-9-9-9-9-9-9-9-9-9-9-9-9
7--7--7--7--7--7--7--7--7-7-7-7-7-7-7-7-7-7-7-7-7
7--7--7--7--7--7--7--7--7-7-7-7-7-7-7-7-7-7-7-7-7
7--7--7--7--7--7--7--7--7-7-7-7-7-7-7-7-7-7-7-7-7

3-3-3-3-3-3-3-3-3-3-3-3-3-3-3-3---------------------------------
5-5-5-5-5-5-5-5-3-3-3-3-3-3-3-3-----------------6-6-6-6-5-5-5-5-
5-5-5-5-5-5-5-5-5-5-5-5-5-5-5-5-7-7-7-7-7-7-7-7-7-7-7-7-7-7-7-7-
3-3-3-3-3-3-3-3-3-3-3-3-3-3-3-3-5-5-5-5-5-5-5-5-5-5-5-5-5-5-5-5-
3-3-3-3-3-3-3-3-3-3-3-3-3-3-3-3-5-5-5-5-5-5-5-5-5-5-5-5-5-5-5-5-
3-3-3-3-3-3-3-3-3-3-3-3-3-3-3-3-5-5-5-5-5-5-5-5-5-5-5-5-5-5-5-5-

7--7--7--7--7--7--7--7--7--7--7--7--7--7--7--7--7--7--7--7--7--7--7--7--7--7--7--7--7--7--7--7
8--8--8--8--8--8--8--8--8--8--8--8--8--8--8--8--8--8--8--8--8--8--8--8--10-10-10-10-10-10-10-10
9--9--9--9--9--9--9--9--9--9--9--9--9--9--9--9--9--9--9--9--9--9--9--9--9--9--9--9--9--9--9--9
10-10-10-10-10-10-10-10-10-10-10-10-10-10-10-10-10-10-10-10-10-10-10-10-7--7--7--7--7--7--7--7
7--7--7--7--7--7--7--7--7--7--7--7--7--7--7--7--7--7--7--7--7--7--7--7--7--7--7--7--7--7--7--7
7--7--7--7--7--7--7--7--7--7--7--7--7--7--7--7--7--7--7--7--7--7--7--7--7--7--7--7--7--7--7--7

3----5--3-------------7------------7---------3
5----3--5-------6-----8-----8------8----6----5
5----5--3--7----7--7--9-------9----9----7----5
3----3--3--5----5--5--10--------10-10---5----3
3----3--3--5----5--5--7------------7----5----3
3----3--3--5----5--5--7------------7----5----3
Guitar Tab Creator is intended to store guitar tab created through the tool. It currently does not support in-line text editing. Any text you place in here will be lost. If you need to comment on your tab, please use the "Tab Notes" section located below.