Canto de Amor

(/) Slide Up  (\) Slide Down  (h) Hammer On  (p) Pull Off  (b) Bend (r) Release (v) Vibrato
E|-----0--0--0--|-----0--------|-----0--0--0--|-----0--0-----|-----1--1-----|-----0-----2--|--
B|-----1--1--1--|-----1--------|-----0--0--0--|-----0--0-----|-----1--1-----|-----1-----4--|--
G|-----2--2--2--|-----2--------|-----1--1--1--|-----1--1-----|-----2--2-----|-----2-----4--|--
D|--------------|--------------|--------------|--------------|--------------|--------------|--
A|--0-----------|--0-----------|--------------|--2-----------|--------------|--0-----2-----|--
E|--------------|--------3--1--|--0-----------|-----------0--|--1--------3--|--------------|--



E|-----0--0--0--|-----0--------|-----
B|-----0--0--0--|-----0--------|-----
G|-----1--1--1--|-----1--------|-----
D|--------------|--------------|-----
A|--------------|--2-----3--2--|-----
E|--0-----------|--------------|-----



E|--------
B|--------
G|--------
D|--------
A|--------
E|--------
http://www.guitartabcreator.com
Guitar Tab Creator is intended to store guitar tab created through the tool. It currently does not support in-line text editing. Any text you place in here will be lost. If you need to comment on your tab, please use the "Tab Notes" section located below.