hand cramp, part deux

(/) Slide Up  (\) Slide Down  (h) Hammer On  (p) Pull Off  (b) Bend (r) Release (v) Vibrato

E|----------------------------------------------------
B|----------------------------------------------------
G|----------------------------------------------------
D|----------------------------------------------------
A|----------------------------------------------------
E|--0h2--2--0--5--2--0--3--2--0--5--2--0--2--3--2-----



E|----------------------------------------------------
B|----------------------------------------------------
G|----------------------------------------------------
D|----------------------------------------------------
A|-------------5--------3--------5--------------------
E|--0h2--2--0-----2--0-----2--0-----2--0--2--3--2-----



E|-------------------------------------------------------
B|-------------------------------------------------------
G|-------------------------------------------------------
D|-------------------------------------------------------
A|-------------5--------3--------------------------------
E|--0h2--2--0-----2--0-----2--0--5--2--0--2--3--2--------



E|--0--------------0-----------------
B|--0--------------0-----------------
G|--0--------------0-----------------
D|--2--5--2--3--0--2--5--5--2--3--0--
A|--2--3--0--3--0--2--3--2--0--3--0--
E|--2--------3--0--2-----------3--0--
http://www.guitartabcreator.com
Guitar Tab Creator is intended to store guitar tab created through the tool. It currently does not support in-line text editing. Any text you place in here will be lost. If you need to comment on your tab, please use the "Tab Notes" section located below.