darker finger pluck thing

(/) Slide Up  (\) Slide Down  (h) Hammer On  (p) Pull Off  (b) Bend (r) Release (v) Vibrato
E|----------------------------------------------------------------
B|-----3-------------------------------------3--------3--------3--
G|--------0-----0h2-----3-----3--3--2--0--------0--------0-----0--
D|----------------------------------------------------------------
A|----------------------------------------------------------------
E|--3--------3-------3-----3--3--3--------2--------2--------2-----



E|-----------------------------------------------------------------------------------
B|--------3--------3--------3--------3--------3--------3--------3-----------3--------
G|-----------0--------0--------0--------0--------0--------0--------0-----------0-----
D|-----------------------------------------------------------------------------------
A|--------------------------------------------------3--------3--------3--1-----------
E|--0--1--------1--------1--------1--------1-----------------------------------------



E|-----------------
B|-----3-----------
G|--------0--------
D|-----------------
A|--1--------1-----
E|-----------------



E|-----0-----------0-----------
B|--3--3--3--------3--3--------
G|--3--2--0--3--5--2--0--------
D|--0--0--2--1--3--0--2-----1--
A|-----0--3--1--3--0--3-----1--
E|--3--0-----1--3--0-----0--1--



E|-----------------------------------------------
B|--------3--------3-----------------------------
G|--------2--------2--5--7-----7-----------------
D|--5--2--0--5--3--0--------0--7--5--3--5--1--0--
A|--3--0--0--2--1--0--3--5--0--4--3--3--5--1--0--
E|--------0--------0--------0--------3--5--1--0--



E|------------------------------------------
B|-------------3-------------------3--------
G|--5--5\4--------------5--5\4--------------
D|--3--2-------1--5--3--3--2-------1--5--5--
A|--3--2-------1--3--1--3--2-------1--3--2--
E|--3--2----0--1--------3--2----0--1--------
http://www.guitartabcreator.com
Guitar Tab Creator is intended to store guitar tab created through the tool. It currently does not support in-line text editing. Any text you place in here will be lost. If you need to comment on your tab, please use the "Tab Notes" section located below.