ballady thing

(/) Slide Up  (\) Slide Down  (h) Hammer On  (p) Pull Off  (b) Bend (r) Release (v) Vibrato

E|-----------3--1--1--
B|-----6--5--3--1--1--
G|-----5--5--5--3--3--
D|--3--3--3--5--1--3--
A|--3--3--3--3--1--1--
E|--3--3--3-----1-----



E|--------------3--------------
B|--3-----------3--------------
G|--2--------5--5--------------
D|--0--5--4--3--5--3--2--1--3--
A|--0--5--4--3--3--3--2--1--1--
E|--0--5--4--3-----3--2--1-----



E|-----------------------
B|--------3--------------
G|--------2-----5--------
D|--7--3--0--5--3--5--1--
A|--5--1--0--3--3--3--1--
E|--5-----0--2--3-----1--
http://www.guitartabcreator.com
Guitar Tab Creator is intended to store guitar tab created through the tool. It currently does not support in-line text editing. Any text you place in here will be lost. If you need to comment on your tab, please use the "Tab Notes" section located below.