Moondance

(/) Slide Up  (\) Slide Down  (h) Hammer On  (p) Pull Off  (b) Bend (r) Release (v) Vibrato

VERSE:
E|-----------------------------------------------------
B|-----------------------------------------------------
G|-----------------------------------------------------
D|-----------------------------------------------------
A|--0--0--2-----3-----2-----0--0--2--2--3--3--2--3--2--
E|-----------0-----0-----0-----------------------------

CHORUS:

E|--------------------------------------------------------------------------------------------
B|--------------------------------------------------------------------------------------------
G|--------------------------------------------------------------------------------------------
D|--0--0-----------------2--0--0-----------------2--0--0-----------------3--0--0--0-----------
A|--------------0--2--3-----------------0--2--3-----------------0--2--3-----------------------
E|--------3--3--------------------3--3--------------------3--3-----------------------0--0--0--



E|------------------------------------------------------------------
B|------------------------------------------------------------------
G|------------------------------------------------------------------
D|---------------0---------------0---------------0------------------
A|-------0--0h3----------0--0h3----------0--0h3----------0--3p0--2--
E|--0h3-------------0h3-------------0h3-------------0h3-------------
Can I have just one more moondance with you my love....
Guitar Tab Creator is intended to store guitar tab created through the tool. It currently does not support in-line text editing. Any text you place in here will be lost. If you need to comment on your tab, please use the "Tab Notes" section located below.