Momentum

(/) Slide Up  (\) Slide Down  (h) Hammer On  (p) Pull Off  (b) Bend (r) Release (v) Vibrato


E|--------------------------------------------------------
B|--------------------------------------------------------
G|--------------------------------------------------------
D|--------------------0--2--3--2--0-----------------------
A|--0--0--2--2--3--3-----------------3--3--2--0--2--------
E|--------------------------------------------------0--0--

CHORUS:

E|-----------------------------------------------
B|-----------------------------------------------
G|-----------------------------------------------
D|--------------------------3--3--5--5-----------
A|--------------3--3--5--5--------------3--3--5--
E|--1--1--3--3-----------------------------------

I know life is getting shorter I can't bring myself to set the scene

E|--------------------------------------------------
B|--------------------------------------------------
G|--------------------------------------------------
D|--------------------------3--3--5--5--3--2--0-----
A|--------------3--3--5--5-----------------------3--
E|--1--1--3--3--------------------------------------

Even when it's approaching torture I've got my routine

E|-----------------------------------------------------------------------------
B|-----------------------------------------------------------------------------
G|-----------------------------------------------------------------------------
D|-----------------------------------------------------------------------------
A|--1--1--3--3--4--4--------1--1--3--3--4--4--------0--0--2--2--3--3--5--5-----
E|--------------------4--4--------------------4--4--------------------------0--
http://www.guitartabcreator.com
Guitar Tab Creator is intended to store guitar tab created through the tool. It currently does not support in-line text editing. Any text you place in here will be lost. If you need to comment on your tab, please use the "Tab Notes" section located below.