honey jack bass

(/) Slide Up  (\) Slide Down  (h) Hammer On  (p) Pull Off  (b) Bend (r) Release (v) Vibrato

E|-----------|------------------
B|-----------|------------------
G|-----------|------------------
D|-----------|------------------
A|-----3--5--|--10--------3--5--
E|--0--------|------7--0--------



E|--------------|--------
B|--------------|--------
G|--------------|--------
D|--------------|--------
A|-----3--2-----|--3--5--
E|--0--------0--|--------



E|---------------|------------------
B|---------------|------------------
G|---------------|------------------
D|---------------|------------------
A|--10-----7--5--|--10-----7--3--5--
E|------7--------|------7-----------



E|-----------|-----------------------
B|-----------|-----------------------
G|-----------|-----------------------
D|-----------|-----------------------
A|--7--5--3--|--5--3--2--0--2--3--2--
E|-----------|-----------------------



E|--------------------------|-----------------------------------|-----------
B|--------------------------|-----------------------------------|-----------
G|--------------------------|-----------------------------------|-----------
D|--------------------------|-----------------------------------|-----------
A|--------------------------|-----------------------------------|--3--5--7--
E|--0--0--3--0--3--3--3--0--|--0--3--0--3--3--3--0--0--0--0--0--|-----------
http://www.guitartabcreator.com
Guitar Tab Creator is intended to store guitar tab created through the tool. It currently does not support in-line text editing. Any text you place in here will be lost. If you need to comment on your tab, please use the "Tab Notes" section located below.