Tallest Man on Earth - Shallow grave

(/) Slide Up  (\) Slide Down  (h) Hammer On  (p) Pull Off  (b) Bend (r) Release (v) Vibrato

This is my take of Shallow Grave by TTMOE. I know it isn't a 100 % accurate, but it sounds okay to me. Your welcome to correct or critize. But be gentle, this is my first tab!

/Nyblomsson

eric.p@bredband.net


Tuning: Open D (DADF#Ad)
Capo: 4th fret

Intro/Verse

||---------------------0------------------0-------------------------0------------------0----------
||--------0-------4b5------0--------0--------------0-----0---0---0------0----------0-----------0--
||----0-------0-----------------0--------------0-------------------------------1-----------0------
||----0-----0--------0----------2------2-----2-------2---2-----2---2------2----0-----0---0-------0
||----------------------------4---4-------4------4-----3---3-----3----3------2---2-----2-----2----
||--0---0---------0------0------------------------------------------------------------------------


------0-------||
----0-----0---||
---1----1---1-||
-----0---0---0||
--2----2---2--||
--------------||


Chorus

||--------0----------0-------
||----5---------5-------5----
||------------0--------------
||---0-----0------0------0---
||---------------------------
||--5---5-------5-----5------


---------------------0-------
--------0-------4b5------0---
----0-------0----------------
----0-----0--------0---------
-----------------------------
-0----0---------0------0-----


--------0----------0---------
----5---------5-------5------
------------0----------------
----0-----0------0------0----
-----------------------------
--5---5-------5-----5--------

Ending:

------------0----------------0----------------------|---0-----12(h)||
-------0------------0------0---------0-------0------|---0----------||
----1-----1-----1---------1------1-------1-------1--|---1s3---12(h)||
----2---2-----2-------2-----2------2-------2-------2|---0----------||
--0---0-----0-----0------0-----0-------0-------0----|---0-----12(h)||
----------------------------------------------------|---0----------||

Guitar Tab Creator is intended to store guitar tab created through the tool. It currently does not support in-line text editing. Any text you place in here will be lost. If you need to comment on your tab, please use the "Tab Notes" section located below.