Stand By Me (Solo)

(/) Slide Up  (\) Slide Down  (h) Hammer On  (p) Pull Off  (b) Bend (r) Release (v) Vibrato
E|------------------------------------------------------------------------------------------
B|-------------------------------------------8--8--8--8--10-8---10-10-10-12-10--3-3-3-3--10-
G|-0-0-2/4-4-4-2-0--2-0----0-0-2/4-4-4-2-0--/9--9--9--9--9--9---11-11-11-11-11--4-4-4-4--11-
D|----------------------2--------------------10-10-10-10-10-10--12-12-12-12-12--5-5-5-5--12-
A|------------------------------------------------------------------------------------------
E|------------------------------------------------------------------------------------------



E|--------------|---------------------------------------------------------------------------
B|-10-10-12-10--|-3-3-3-5b7-3-3-5b7-3-3-5b7-3-3/12-12-12-14-12----------------8--8-8-8-10-8-
G|-11-11-11-11--|-4--------------------------------------------14-14b16b14-12-9-------------
D|-12-12-12-12--|-5-----------------------------------------------------------10------------
A|--------------|---------------------------------------------------------------------------
E|--------------|---------------------------------------------------------------------------



E|---------------------------------------------|--------------------------------------------
B|-10-10-10-12-10-3--3-3--3/10-12-10-12-10-----|-3-5b7-3-5-3-5-3-5-3-0------------0-0-------
G|-11-11-11-12-11-4--4-4--4----------------12--|--------------------------0-0-2/4-----2p0---
D|-12-12-12-12-12-5--5-5--5--------------------|-----------------------2--------------------
A|---------------------------------------------|-----------------------2------------------2-
E|---------------------------------------------|--------------------------------------------



E|-0------------------------------|----------------------0------------------------------
B|-1---3--3/5-5-3----3-3-3-3-3-3--|-3-3-5b7-3------------0--0-0-----0-------8--8--10b12-
G|-0---2--2-4-4-2p0--2-2-2-2-2-2--|-4---------2-0-2--2-0-0------2/4---0-----9--9--------
D|-2---0--0-0-0\0----0-0-0-0-0-0--|-5--------------------2--------------2--/10-10-------
A|-3------------------------------|----------------------2------------------------------
E|--------------------------------|----------------------0------------------------------



E|------------------------------------------|------------------------------------------------------
B|-8--10-10-12b14-10-3--3-3--3-3-3-3-3-3-3--|------------------------------------------------------
G|----11-------------4--4-4--4-2-2-2-2-2-2--|------------------------------------------------------
D|----12-------------5--5-5--5-4-4-4-4-4-4--|------------------------------------------------------
A|------------------------------------------|-5-5-7-5-5-5-7-5-5-5-7-5-5-5-7-5/14-14-16-14-16-------
E|------------------------------------------|-3-3-3-3-3-3-3-3-3-3-3-3-3-3-3-3-12-12-12-12-12-------



E|--------------------------------------------------------------------------|---------------------------
B|------------------------------------------12b14b14-3--3-3--3-3-3-3-3-3-3--|-3-0-0-3/5-0-0-3/5-0-0-3/5-
G|---------------------------------------------------4--4-4--4-2-2-2-2-2-2--|-4-------------------------
D|---------------------------------------------------5--5-5--5-4-4-4-4-4-4--|-5-------------------------
A|-14--14-14--10-10-12-10-10-10-12-10-12-12---------------------------------|---------------------------
E|-12--12-12--8--8--8--8--8--8--8--8--10-10---------------------------------|---------------------------



E|---------------------------------------------------------------------0--2--3----------------------------|--
B|--0--0--3/5--0--0--3/5--0--0--3/5--3--5b7--3-------------------------1--3--3--10--12--10--12--10--------|--
G|----------------------------------------------4--2--4----4--2--0-----0--2--4----------------------12----|--
D|------------------------------------------------------------------2--2--0--5----------------------------|--
A|---------------------------------------------------------------------3-----5----------------------------|--
E|---------------------------------------------------------------------------3----------------------------|--
http://www.guitartabcreator.com
Guitar Tab Creator is intended to store guitar tab created through the tool. It currently does not support in-line text editing. Any text you place in here will be lost. If you need to comment on your tab, please use the "Tab Notes" section located below.