Research Project Song draft 1

(/) Slide Up  (\) Slide Down  (h) Hammer On  (p) Pull Off  (b) Bend (r) Release (v) Vibrato
E|--8---8---6--6----8---8---6--6--
B|--9---8---6--6----9---8---6--6--
G|--8---8---8--7----8---8---8--8--
D|--10--10--8--8----10--10--8--8--
A|--8---8---6--6----8---8---6--6--
E|--------------------------------



E|-------------------------------------------------------------------------------------------------
B|---------9----------9--8----8--9--6----6-----------------9----------9--8--6----6----6----6-------
G|------8-----8----8------------------------8--7--------8-----8----8-------------------------------
D|--10----------------------------------------------10---------------------------------------------
A|-------------------------------------------------------------------------------------------------
E|-------------------------------------------------------------------------------------------------
http://www.guitartabcreator.com
Guitar Tab Creator is intended to store guitar tab created through the tool. It currently does not support in-line text editing. Any text you place in here will be lost. If you need to comment on your tab, please use the "Tab Notes" section located below.