Song of Hope

(/) Slide Up  (\) Slide Down  (h) Hammer On  (p) Pull Off  (b) Bend (r) Release (v) Vibrato


E|--------------------------------------------------------11-----------12----12--11----------
B|--11--12--11--12--11--12--12--11----------------12--14------14---------------------14--12--
G|--11--11--11--11--11--11----------13--11----13--------------------9------------------------
D|-------------------------------------------------------------------------------------------
A|-------------------------------------------------------------------------------------------
E|-------------------------------------------------------------------------------------------



E|------------7---------6--------------7---------9--------------7---------6-------
B|--9------------------------9------------------------9------------------------9--
G|-------6h8-------6h8------------6h8-------6h8------------6h8-------6h8----------
D|--------------------------------------------------------------------------------
A|--------------------------------------------------------------------------------
E|--------------------------------------------------------------------------------



E|------------------------------------------------------------------------
B|------------------------------------------------------------------------
G|--4/6--4----9--9--9--9--11--11--11--11--13--13--13--13--15--15--15--15--
D|------------------------------------------------------------------------
A|--2-4--2----7--7--7--7--9---9---9---9---11--11--11--11--13--13--13--13--
E|------------------------------------------------------------------------



E|------------
B|--12--9--5--
G|--11--8--4--
D|--9---6--2--
A|------------
E|------------
http://www.guitartabcreator.com
Guitar Tab Creator is intended to store guitar tab created through the tool. It currently does not support in-line text editing. Any text you place in here will be lost. If you need to comment on your tab, please use the "Tab Notes" section located below.