Our God Saves Intro/Verse/Chorus

(/) Slide Up  (\) Slide Down  (h) Hammer On  (p) Pull Off  (b) Bend (r) Release (v) Vibrato


E|-------------------------------------------
B|-------------------------------------------
G|-------------------------------------------
D|--0--0----0h2--0h2----4--4----2h4--2h4-----
A|-------------------------------------------
E|-------------------------------------------



E|--------------------------------------------------------------------------------------------------
B|--------------------------------------------------------------------------------------------------
G|--------------------------------------------------------------------------------------------------
D|------0--0------0h2--0h2------4--4------2h4--2h4------0--0------0h2--0h2------4--4------2h4--2h4--
A|--------------------------------------------------------------------------------------------------
E|--------------------------------------------------------------------------------------------------



E|------------------------------------------------------------------------------------
B|------------------------------------------------------------------------------------
G|--7----7/9----9/11--9--6--7----6/9----9/11--9--6--7----7----7/9----9/11----9--6--7--
D|------------------------------------------------------------------------------------
A|------------------------------------------------------------------------------------
E|------------------------------------------------------------------------------------



E|----------------------------------------------------------------
B|----------------------------------------------------------------
G|--7----7/9----9/11----9--6--7----7----7/9----9/11----11/14--14--
D|----------------------------------------------------------------
A|----------------------------------------------------------------
E|----------------------------------------------------------------
http://www.guitartabcreator.com
Guitar Tab Creator is intended to store guitar tab created through the tool. It currently does not support in-line text editing. Any text you place in here will be lost. If you need to comment on your tab, please use the "Tab Notes" section located below.