Never Once Lead

(/) Slide Up  (\) Slide Down  (h) Hammer On  (p) Pull Off  (b) Bend (r) Release (v) Vibrato

(W|WW) Whole (H|HH) Half (Q|QQ) Quarter (E|EE) 8th (S|SS) 16th (T|TT) 32nd (X|XX) 64th

Stave 1:
t: W WW WW
E|--11--6--11--12--
B|--12--7--12--12--
G|--11--6--13--13--
D|-----------------
A|-----------------
E|-----------------

Stave 2:
t: WW WW WW WW
E|--12--9---11--12--
B|--12--11--12--12--
G|--13--11--11--13--
D|------------------
A|------------------
E|------------------

Stave 3:
t: WW WW H WW HH H H HH HH HH
E|-------------------------------------------
B|--12-----------12-----------9--12--12--11--
G|--11-----------13-----------9--11--13--11--
D|--9---9/11--9--13--9/11--9--9--9---13--11--
A|-------------------------------------------
E|-------------------------------------------

Stave 4:
t: QQ EE EE EE QQ EE EE EE EE EE EE QQ
E|-------------------------------------------------
B|--12--12--12/14--14--12--12--14--14--14--12--12--
G|--11---------------------------------------------
D|--9----------------------------------------------
A|-------------------------------------------------
E|-------------------------------------------------

Stave 5:
t: EE EE EE EE QQ EE EE EE EE EE EE QQ
E|-------------------------------------------------
B|--12--12--12/14--14--12--12--14--14--14--12--12--
G|--13---------------------------------------------
D|-------------------------------------------------
A|-------------------------------------------------
E|-------------------------------------------------

http://www.guitartabcreator.com
Guitar Tab Creator is intended to store guitar tab created through the tool. It currently does not support in-line text editing. Any text you place in here will be lost. If you need to comment on your tab, please use the "Tab Notes" section located below.