God My Rock Lead Guitar

(/) Slide Up  (\) Slide Down  (h) Hammer On  (p) Pull Off  (b) Bend (r) Release (v) Vibrato


E|--8--8--8--8--------------------8--8--8--8--------------8--7--
B|--8--8--8--8--------------6--5--8--8--8--8-----------8--------
G|--------------7b7b5-------------------------7b7b7-------------
D|-----------------------5--------------------------------------
A|--------------------------------------------------------------
E|--------------------------------------------------------------



E|--8--8--8--8------------------------8--8--8--8-----------------------------13--
B|--8--8--8--8------------------------8--8--8--8---------10------10--12--13------
G|--------------7b7b5----/14--14--14--------------7b7b7------10------------------
D|-------------------------------------------------------------------------------
A|-------------------------------------------------------------------------------
E|-------------------------------------------------------------------------------



E|-------7--------5--------3---------5--------3--------1--
B|--------------------------------------------------------
G|--5/7-----7--5-----5--4-------4/5-----5--4-----4--2-----
D|--------------------------------------------------------
A|--------------------------------------------------------
E|--------------------------------------------------------



E|----------10--12------------------
B|------------------10----8--10-----
G|-------------------------------9--
D|----------------------------------
A|----------------------------------
E|----------------------------------
http://www.guitartabcreator.com
Guitar Tab Creator is intended to store guitar tab created through the tool. It currently does not support in-line text editing. Any text you place in here will be lost. If you need to comment on your tab, please use the "Tab Notes" section located below.