God Is Able Intro-Chorus-Lead G

(/) Slide Up  (\) Slide Down  (h) Hammer On  (p) Pull Off  (b) Bend (r) Release (v) Vibrato

Stave 0

E|-----------------------7h8--8--7-------------------------------------
B|--10p8--8h10--10p8--8----------------10p8--8h10--10p8--8----------8--
G|----------------------------------------------------------7h9--9-----
D|---------------------------------------------------------------------
A|---------------------------------------------------------------------
E|---------------------------------------------------------------------

Stave 2:

E|---------------------------------------------------------7------
B|-----8--10--8--------8--10--8--------8--10--8---------8-----10--
G|--7---------------7---------------7-----------------------------
D|--------------------------------------------------10------------
A|----------------------------------------------------------------
E|----------------------------------------------------------------

Stave 3:

E|--10--10--10--10--10--10--8--7------------------------------10--10--10--10--7--7----------8--8--8--8--
B|--------------------------------10--10--10--10--7--7--8--8------------------------10--10--------------
G|------------------------------------------------------------------------------------------------------
D|------------------------------------------------------------------------------------------------------
A|------------------------------------------------------------------------------------------------------
E|------------------------------------------------------------------------------------------------------

Stave 4:

E|--8--8--8--8--
B|--------------
G|--------------
D|--------------
A|--------------
E|--------------

http://www.guitartabcreator.com
Guitar Tab Creator is intended to store guitar tab created through the tool. It currently does not support in-line text editing. Any text you place in here will be lost. If you need to comment on your tab, please use the "Tab Notes" section located below.