UNICORN!

(/) Slide Up  (\) Slide Down  (h) Hammer On  (p) Pull Off  (b) Bend (r) Release (v) Vibrato


E|--1--------1-----------------------------1--------1--------------------------1--
B|-----1--1-----1--1--------------------------1--1-----1--1-----------------1-----
G|--------------------1--2--3--4--5--4--4--------------------5--4--3--2--1--------
D|--------------------------------------------------------------------------------
A|--------------------------------------------------------------------------------
E|--------------------------------------------------------------------------------



E|--3--------3--------------5--4--3--3--------3--------------5--4-----
B|-----3--3-----3--3--4--5--------------3--3-----3--3--4--5--------7--
G|--------------------------------------------------------------------
D|--------------------------------------------------------------------
A|--------------------------------------------------------------------
E|--------------------------------------------------------------------
http://www.guitartabcreator.com
Guitar Tab Creator is intended to store guitar tab created through the tool. It currently does not support in-line text editing. Any text you place in here will be lost. If you need to comment on your tab, please use the "Tab Notes" section located below.