jkl;

(/) Slide Up  (\) Slide Down  (h) Hammer On  (p) Pull Off  (b) Bend (r) Release (v) Vibrato

E|-------------------------------------------------------------------------------------------
B|------------------------------------------9--------------5-----4---------------------------
G|--0----3p0h3/5--0----5\3/5/8--0----8\7/8-----0----5\3/5-----3-----3-----3/5\3--------------
D|---------------------------------------------------------------------0---------5--7--5-----
A|--0h2-----------0h5-----------0h7------------0h5----------------------------------------0--
E|-------------------------------------------------------------------------------------------



E|-------------------------------------------------------------------------------------------
B|-------------------------------------------------0--------0--------0--------0--------4-----
G|-------------0--------0--------0--------0-----------------------------------------3--------
D|--5\4-----4--------4--------4--------4--------3--------3--------3--------3-----5-----------
A|-------5--------5--------5--------5--------4--------4--------4--------4--------------------
E|-------------------------------------------------------------------------------------------



E|--------0-----------------0--------------------
B|-----4-----------4-----4-----------------------
G|--3-----------3-----3-----------0--0-----------
D|-----------5-----------------4--------0--5--4--
A|-----------------------------------------------
E|-----------------------------------------------
http://www.guitartabcreator.com
Guitar Tab Creator is intended to store guitar tab created through the tool. It currently does not support in-line text editing. Any text you place in here will be lost. If you need to comment on your tab, please use the "Tab Notes" section located below.