asdf

(/) Slide Up  (\) Slide Down  (h) Hammer On  (p) Pull Off  (b) Bend (r) Release (v) Vibrato


E|-----------0-----------0--0--4/5-----------------------------------------------------------
B|--------0-----------0-------------5/7\5\4p0--0----5\4/5/7--0----5/4p0h2--------------7--5--
G|-----2-----------2------------------------------------------------------------5\3/5--5--3--
D|--2-----------4----------------------------------------------------------------------------
A|---------------------------------------------0h4-----------0h4-----------0h4---------------
E|--------------------------0----------------------------------------------------------------



E|--------------------------------------------------------------------------------------------
B|--------------2--4-----------5-----------5-----------5-----------5-----------5-----------5--
G|-------5\3\2--1--3--------3-----------3-----------3-----------3-----------3-----------3-----
D|-----------------------4-----------4-----------4-----------4-----------2-----------2--------
A|--0h4---------------2-----------2-----------2-----------2-----------4-----------4-----------
E|--------------------------------------------------------------------------------------------



E|--------------------------------------------------------------------------------------------------
B|-----------5-----------5--------------------------------------------------------------------------
G|--------3-----------3--------------8-----------8-----------8-----------8-----------8-----------8--
D|-----2-----------2--------------9-----------9-----------9-----------9-----------7-----------7-----
A|--4-----------4--------------9-----------9-----------9-----------9-----------9-----------9--------
E|--------------------------0-----------0-----------0-----------0-----------0-----------0-----------



E|-----------------------------------------------10-----------------------10-----------------
B|-----------------------------------0--------0---------------0--------0---------------0-----
G|-----------8-----------8--------8--------8---------------8--------8---------------8--------
D|--------7-----------7--------7--------7---------------7--------7---------------7-----------
A|-----9-----------9--------0------------------------0------------------------0--------------
E|--0-----------0----------------------------------------------------------------------------



E|-----------9-----------------------9-------------------------9-------------------------9--
B|--------0--------------0--------0--------------10--------10--------------10--------10-----
G|-----8--------------8--------8--------------8---------8---------------8---------8---------
D|--7--------------7--------7--------------7---------7---------------7---------7------------
A|--------------0-----------------------0-------------------------0-------------------------
E|------------------------------------------------------------------------------------------



E|-----------------------9-----------------------9----------------------------------------
B|-----------9--------9--------------9--------9--------------5--------5/7--5-----------5--
G|--------8--------8--------------8--------8--------------8-------------------------7-----
D|-----7--------7--------------7--------7--------------0-----------0-------------0--------
A|--0-----------------------0-----------------------------------0-------------0-----------
E|--------------------------------------------------0-------------------------------------



E|---------------------------------------
B|-------------------4-------------------
G|--------7/8--7--3-----3-----3/5--3-----
D|-----0-------------------0----------0--
A|--0------------------------------------
E|---------------------------------------
http://www.guitartabcreator.com
Guitar Tab Creator is intended to store guitar tab created through the tool. It currently does not support in-line text editing. Any text you place in here will be lost. If you need to comment on your tab, please use the "Tab Notes" section located below.