I

(/) Slide Up  (\) Slide Down  (h) Hammer On  (p) Pull Off  (b) Bend (r) Release (v) Vibrato

E|-------------------------
B|--6--6-------------------
G|--------9--12------------
D|---------------5--14--9--
A|-------------------------
E|-------------------------



E|--
B|--
G|--
D|--
A|--
E|--



E|-----------
B|-----------
G|-----------
D|--5--------
A|-----6--9--
E|-----------



E|--------------------------
B|--------------------------
G|-----------12h13--12\14v--
D|-----8r11-----------------
A|--5-----------------------
E|--------------------------



E|--
B|--
G|--
D|--
A|--
E|--
http://www.guitartabcreator.com
Guitar Tab Creator is intended to store guitar tab created through the tool. It currently does not support in-line text editing. Any text you place in here will be lost. If you need to comment on your tab, please use the "Tab Notes" section located below.