Minor Doodle in D Standard Drop C

(/) Slide Up  (\) Slide Down  (h) Hammer On  (p) Pull Off  (b) Bend (r) Release (v) Vibrato

E|--------------------------------------------------------------------------------------------------
B|--------------------------------------------------------------------------2--3--1--3--4--3--1-----
G|-----------------------------2--2--0--2--3--2--0--2--2--0--2--3--2--0--2--------------------------
D|--------0--2--0--2--3--0--2-----------------------------------------------------------------------
A|-----0--------------0-----------------------------------------------------------------------------
E|--0--------0--------------------1--1-----------------1--1--------------------1--1-----------------



E|-----------------------------------------------2--3--1--3--4--3--1--------------------------------
B|--3--3--1--3--4--3--1--3--3--1--3--4--3--1--3-----------------------4--3--1--3--------------------
G|--------------------------------------------------------------------------------3--2--2-----------
D|-----------------------------------------------------------------------------------------3--0-----
A|--------------------------------------------------------------------------------------------------
E|-----1--1-----------------1--1--------------------1--1--------------------1--1--------1--1--0-----
http://www.guitartabcreator.com
Guitar Tab Creator is intended to store guitar tab created through the tool. It currently does not support in-line text editing. Any text you place in here will be lost. If you need to comment on your tab, please use the "Tab Notes" section located below.