My Girll - Rocksmith

(/) Slide Up  (\) Slide Down  (h) Hammer On  (p) Pull Off  (b) Bend (r) Release (v) Vibrato


E|----------------------|----------------------|----------------------|--
B|----------------------|----------------------|----------------------|--
G|-------------------5--|-------------------5--|-------------------5--|--
D|-------------5--7-----|-------------5--7-----|-------------5--7-----|--
A|--3----5--7-----------|--3----5--7-----------|--3----5--7-----------|--
E|----------------------|----------------------|----------------------|--



E|----------------------|----------------------|----------------------|--
B|----------------------|----------------------|----------------------|--
G|----------------------|-------------------5--|----------------------|--
D|-------------------3--|-------------5--7-----|-------------------3--|--
A|-------------3--5-----|--3----5--7-----------|-------------3--5-----|--
E|--1----3--5-----------|----------------------|--1----3--5-----------|--
http://www.guitartabcreator.com
Guitar Tab Creator is intended to store guitar tab created through the tool. It currently does not support in-line text editing. Any text you place in here will be lost. If you need to comment on your tab, please use the "Tab Notes" section located below.