Stompin' on BB's Box

(/) Slide Up  (\) Slide Down  (h) Hammer On  (p) Pull Off  (b) Bend (r) Release (v) Vibrato


E|--9----------9----------7--------7--------7--5--7--
B|-----10---------10---------8--------8-----7--5--7--
G|---------11---------11--------9--------9--7--5--7--
D|------------------------------------------9--7--9--
A|------------------------------------------9--7--9--
E|------------------------------------------7--5--7--



E|----------------------------------------------------------------
B|----------------------------------------------------------------
G|----------------------------------------------------------------
D|------------------9--7---------------------------9--9--7-----9--
A|------------7--9--------9--7--9------------7--9-----------9-----
E|--7--7--10-----------------------7--7--10-----------------------



E|----------------------------------------------------------------
B|----------------------------------------------------------------
G|-----7--9b10r9--7--------7--9b10r9--7--9b10r9--7--9b10r9--7-----
D|--9----------------9--9--------------------------------------9--
A|----------------------------------------------------------------
E|----------------------------------------------------------------
http://www.guitartabcreator.com
Guitar Tab Creator is intended to store guitar tab created through the tool. It currently does not support in-line text editing. Any text you place in here will be lost. If you need to comment on your tab, please use the "Tab Notes" section located below.