NN4

(/) Slide Up  (\) Slide Down  (h) Hammer On  (p) Pull Off  (b) Bend (r) Release (v) Vibrato

E|--7----------5----------3----------2----7----------5----------3----------2--
B|--9----------7----------5----------4----9----------7----------5----------4--
G|--9----------7----------5----------4----9----------7----------5----------4--
D|----------------------------------------------------------------------------
A|----------------------------------------------------------------------------
E|----------------------------------------------------------------------------



E|-----
B|-----
G|-----
D|-----
A|-----
E|-----



E|--------------------------------------------------------------------
B|--------------------------------------------------------------------
G|--------------------------------------------------------------------
D|----------------3--5-------------------------------3--5-------------
A|-----3--5----5-------------3--5---------3--5----5-------------3--5--
E|--5---------------------5------------5---------------------5--------



E|-------------------
B|-------------------
G|-------------------
D|-------------------
A|-------------------
E|--7\9--7--7--5--4--
http://www.guitartabcreator.com
Guitar Tab Creator is intended to store guitar tab created through the tool. It currently does not support in-line text editing. Any text you place in here will be lost. If you need to comment on your tab, please use the "Tab Notes" section located below.