Chasing Cars

(/) Slide Up  (\) Slide Down  (h) Hammer On  (p) Pull Off  (b) Bend (r) Release (v) Vibrato

Stave 1:

E|--------------
B|--------------
G|--------------
D|--------------
A|--------5-----
E|--5--4-----5--

Stave 2:

E|--------------
B|--------------
G|--------------
D|--------------
A|--4--2--0--4--
E|--------------

Stave 3:

E|--------------
B|--------------
G|--------------
D|--------------
A|--7--7--9--7--
E|--------------

Stave 4:

E|--------------
B|--------------
G|--------------
D|--7--6--7--7--
A|--------------
E|--------------

Stave 5:

E|--------------
B|--------------
G|--9--9--7--9--
D|--------------
A|--------------
E|--------------

Stave 6:

E|------------------------------
B|--10--12--10--10--------------
G|------------------------------
D|------------------------------
A|------------------------------
E|------------------------------

Stave 7:

E|--9--12--10--9--
B|----------------
G|----------------
D|----------------
A|----------------
E|----------------

http://www.guitartabcreator.com
Guitar Tab Creator is intended to store guitar tab created through the tool. It currently does not support in-line text editing. Any text you place in here will be lost. If you need to comment on your tab, please use the "Tab Notes" section located below.