Subside

(/) Slide Up  (\) Slide Down  (h) Hammer On  (p) Pull Off  (b) Bend (r) Release (v) Vibrato

Subside- Bass Tab

Tuning: Drop C


Intro: x8
F|--------------------------
C|--------------------------
G|--------------------------
C|--0--3--1--0--1--0--0--0--



Verse: x8
F|----------------------------------------
C|----------------------------------------
G|----------------------------------------
C|--0--3--1--0--1----0--3--1--0--1--0--1--



Chorus: x2
F|----------------------------------------------------------------------
C|----------------------------------------------------------------------
G|----------------------------------------------------------------------
C|--0--0--0--0--0--0--0--0--0--0--0--8--8--8--8--8--10--10--10--10--10--




F|---------------------------------------------------------------------------
C|---------------------------------------------------------------------------
G|---------------------------------------------------------------------------
C|--0--0--0--0--0--0--0--0--0--0--0--13--13--13--13--13--15--15--15--15--15--

------
Intro
Verse
Chorus
------

Breakdown 1: x4
F|--------------------------------------------------------------------
C|--------------------------------------------------------------------
G|--------------------------------------------------------------------
C|--1--0--0--0--1--0--0--0--0--0--1--0--0--0--1--0--0--0--7--7--8--8--



Breakdown 2: x4
F|--------------------------------------------------------------------------
C|--------------------------------------------------------------------------
G|--------------------------------------------------------------------------
C|--1--1--1--1--1--1--1--1--1--1--1--1--5--5--8--8--3--3--3--3--3--3--3--3--

------
Breakdown 1
------ http://www.guitartabcreator.com
Guitar Tab Creator is intended to store guitar tab created through the tool. It currently does not support in-line text editing. Any text you place in here will be lost. If you need to comment on your tab, please use the "Tab Notes" section located below.