Song 1

(/) Slide Up  (\) Slide Down  (h) Hammer On  (p) Pull Off  (b) Bend (r) Release (v) Vibrato


E|--------------------------
B|---------3----------------
G|--11--7--2--9-------------
D|--9---5--0--7-------------
A|--9---5--0--7-------------
E|--9---5--0--7-------------



E|--------------------------------------------------------------
B|--------------------------------------------------------------
G|--------------------------------------------------------------
D|--9--9--11b9--0--5--5--11b9--0--2--2--11b9--0--7--7--11b9-----
A|--9--9--------0--5--5--------0--2--2--------0--7--7-----------
E|--9--9--------0--5--5--------0--2--2--------0--7--7-----------



E|-----
B|-----
G|--9--
D|--7--
A|--7--
E|--7--



E|----------------
B|----------------
G|--11--7--14--9--
D|--9---5--12--7--
A|--9---5--12--7--
E|--9---5--12--7--



E|--
B|--
G|--
D|--
A|--
E|--
http://www.guitartabcreator.com
Guitar Tab Creator is intended to store guitar tab created through the tool. It currently does not support in-line text editing. Any text you place in here will be lost. If you need to comment on your tab, please use the "Tab Notes" section located below.