Division Bass Tab

(/) Slide Up  (\) Slide Down  (h) Hammer On  (p) Pull Off  (b) Bend (r) Release (v) Vibrato

Division-

Tuning: Drop D

Verse Part 1: x4
G|--------------
D|--------------
A|--------------
D|--0--0--0--0--


Verse Part 2: [x4]
G|--------------
D|--------------
A|--------------
D|--8--8--8--8--

--------
Verse Part 1: [x4]
Verse Part 2: [x4]
--------

Chorus: [x2]
G|--------------------------------------------------------------------------------
D|--------------------------------------------------------------------------------
A|--5--5--5--5--5--5-----------------------3--3--3--3--3--3--3--------------------
D|--------------------3--3--3--3--3--3--3-----------------------5--5--5--8--8--8--


G|--------------------------------------------------------------------------------------
D|--------------------------------------------------------------------------------------
A|--5--5--5--5--5--5--8--8--8--8--8--8--8-----------------------------------------------
D|-----------------------------------------8--8--8--8--8--8--8--10--10--10--10--10--10--

--------
Verse Part 1: [x4]
Verse Part 2: [x4]
Verse Part 1: [x4]
Verse Part 2: [x4]
Chorus: [x2]
--------

Breakdown: [x4]
G|-----------------------------------------------------------------------------------
D|-----------------------------------------------------------------------------------
A|--8--8--8--8--8--8--8--8--8--10p8--------------------------------------------------
D|-----------------------------------8--8--8--8--8--8--8--8--8--8--8--8--8--8--8--8--

--------
Chorus: [x2]
-------- http://www.guitartabcreator.com
Guitar Tab Creator is intended to store guitar tab created through the tool. It currently does not support in-line text editing. Any text you place in here will be lost. If you need to comment on your tab, please use the "Tab Notes" section located below.