monkeys in the house

(/) Slide Up  (\) Slide Down  (h) Hammer On  (p) Pull Off  (b) Bend (r) Release (v) Vibrato


E|------------------------------------------------------------------------------
B|------------------------------------------------------------------------------
G|------------------------------------------------------------------------------
D|-------------------------------------------------5----------------5-----------
A|----------5----------------5-----------7------7-----7--5--7----7-----7--5--7--
E|--7----7-----7--5--7----7-----7--5--7-----------------------------------------



E|-----------------------|---------------------------------------------------------------------
B|-----------------------|---------------------------------------------------------------------
G|-----------------------|---------------------------------------------------------------------
D|-----------------------|---------------------------------------------9----9--12--9--7--9-----
A|--5--5--5--5--5--4--3--|----9----9--12--9--7--9----9--12--9--7--9----7----7--10--7--5--7-----
E|--3--3--3--3--3--2--1--|----7----7--10--7--5--7----7--10--7--5--7----------------------------



E|--------------------------------------
B|--------------------------------------
G|------------------------------------7-
D|------------------------------------6b
A|--9--12--9--7--9----9--12--9--7--9--7-
E|--7--10--7--5--7----7--10--7--5--7----
http://www.guitartabcreator.com
Guitar Tab Creator is intended to store guitar tab created through the tool. It currently does not support in-line text editing. Any text you place in here will be lost. If you need to comment on your tab, please use the "Tab Notes" section located below.