Vagina and Wine

(/) Slide Up  (\) Slide Down  (h) Hammer On  (p) Pull Off  (b) Bend (r) Release (v) Vibrato

Verse(figure1)
E|----4----4----3----2----
B|----5----4----3----2----
G|----4----4----4----3----
D|----6----6----5----4----
A|----7----4----5----4----
E|----4----4----3----2----


Chorus(Figure2
E|----2----3----2----
B|----3----3----2----
G|----4----4----3----
D|----4----5----4----
A|----2----5----4----
E|---------3----2----


Bridge(Figure3)
E|-----------------------------------------------
B|--------------3--------------------------------
G|--------4--------4-----------------------------
D|-----4-----4--------4--------5-----------4-----
A|--2-----------------------5-----5-----4-----4--
E|-----------------------3-----------2-----------


Bridge (figure4)
E|--2--3--2--2--
B|--3--3--2--3--
G|--4--4--3--4--
D|--4--5--4--4--
A|--2--5--4--2--
E|-----3--2-----
http://www.guitartabcreator.com
Guitar Tab Creator is intended to store guitar tab created through the tool. It currently does not support in-line text editing. Any text you place in here will be lost. If you need to comment on your tab, please use the "Tab Notes" section located below.