The Big Door

(/) Slide Up  (\) Slide Down  (h) Hammer On  (p) Pull Off  (b) Bend (r) Release (v) Vibrato


E|------------------------------
B|------------------------------
G|--0h2p0-----------------------
D|---------2--0-----------------
A|---------------7--7--7--7--7--
E|---------------5--5--5--5--5--



E|-------------------------------------------------------------------
B|-------------------------------------------------------------------
G|--0h2p0------------------------------------------------------------
D|---------2--0------------------------------------------------------
A|---------------5--5--5--5--5--5--5--7--7--7--7--10--10--10--10--7--
E|---------------3--3--3--3--3--3--3--5--5--5--5--8---8---8---8---5--



E|--------
B|--------
G|--------
D|--------
A|--------
E|--------
http://www.guitartabcreator.com
Guitar Tab Creator is intended to store guitar tab created through the tool. It currently does not support in-line text editing. Any text you place in here will be lost. If you need to comment on your tab, please use the "Tab Notes" section located below.