satanic rites

(/) Slide Up  (\) Slide Down  (h) Hammer On  (p) Pull Off  (b) Bend (r) Release (v) Vibrato

E|--------------------------------
B|--------------------------------
G|--------------------------------
D|-----8--7-----------------------
A|--0--------0--8--0--7--0--5--3--
E|--------------------------------



E|-----------------------------------------
B|-----------------------------------------
G|-----------------------------------------
D|-----8--7--------------------------------
A|--0--------8--7--0--5--0--3--0--2--3--0--
E|-----------------------------------------



E|--------------------------------------------------------------------------------------------------------------------------------------
B|--------------------------------------------------------------------------------------------------------------------------------------
G|--------------------------------------------------------------------------------------------------------------------------------------
D|--------------------------------8--------7--------------------------------------------------------------------------------------------
A|--0--0--0--0--0--0--0--0--0--0-----0--0-----0--0--8--8--8--8--8--8--7--7--7--7--7--7--5--5--5--5--5--5--3--3--3--3--3--2--2--2--2--2--
E|--------------------------------------------------------------------------------------------------------------------------------------
http://www.guitartabcreator.com
Guitar Tab Creator is intended to store guitar tab created through the tool. It currently does not support in-line text editing. Any text you place in here will be lost. If you need to comment on your tab, please use the "Tab Notes" section located below.