Vela Instrumental Solo Clean and Distorted

|-------------------------------------------------------------------------------
|-------------------------------------------------------------------------------
|--------------15----------------13----------------11-------------11-13---------
|--16-15-16-18----16-15-13-15-16----15-13-11-13-15----13-15-13-15-------11-13-11
|-------------------------------------------------------------------------------
|-------------------------------------------------------------------------------

|-------------------------------------------------------------------------------------
|-----------------------------------------------------------------18----18----18-18---
|-----------15-16-18-15-16----15-------------------------15-16-18----18----18-------18
|--15-16-18----------------18----16-18-15-------15-16-18------------------------------
|-----------------------------------------16-18---------------------------------------
|-------------------------------------------------------------------------------------

|--14----14----14-14----16----16-21-16------------
|-----16----16-------16----19----------18---------
|-----------------------------------------18------
|--------------------------------------------18---
|-----------------------------------------------20
|-------------------------------------------------

|----------------------------------------------------------------------
|----------------------------------------------------------------------
|--------------15----------------------------11----------11-13-11------
|--16-15-16-18----15-16-15-13-11-13-11-13-15----15-13-15----------15-11
|----------------------------------------------------------------------
|----------------------------------------------------------------------

|----------------------------------------------9----------------9-13-14-13-9------
|---------------------------------------------------------------------------------
|----------11-------11-13----11-13-15-11-13-15---15-13-11-13-15--------------15-13
|---------------------------------------------------------------------------------
|--9-13-16----13-16-------16------------------------------------------------------
|---------------------------------------------------------------------------------

|--------------------13-16-18-16-13-------------13-------13-16
|-------------------------------------------------------------
|--10-13-15-13-15-18----------------18-13-15-18----15-18------
|-------------------------------------------------------------
|-------------------------------------------------------------
|-------------------------------------------------------------

|--18-14----------------------------14-18-14----18-19-18-14----------14-18-14
|--------16----------------------16----------16-------------16----16---------
|-----------15----------------15-------------------------------15------------
|--------------16----------16------------------------------------------------
|-----------------18-13-18---------------------------------------------------
|----------------------------------------------------------------------------

|--20-16-------16-13-------13-8------8-4------------------------------------------------
|--------18----------13---------9--------6----------------------------------------9-9---
|-----------17----------13--------10-------5-----------------------4-6-8-6-8-8-10---10-8
|--------------------------------------------6---------4-6-8-4-6-8----------------------
|----------------------------------------------8-4-6-8----------------------------------
|---------------------------------------------------------------------------------------

|----------------------------------------------------------------------------------
|----------------------------------------------------------------------------------
|--10-9-8-6-8-9-10-9-8-6-8-9-10-9-8-6----------------------11-10-9-8-9-10-11-10-9-8
|------------------------------------------------8-9-10-11-------------------------
|-------------------------------------9-10-11-12-----------------------------------
|----------------------------------------------------------------------------------

|--------------
|--------------
|--------------
|----------9-11
|--9-11-13-----
|--------------

|-----------14-16-18-16----------14-16-18-16-14-16-16-21-16-14-16----14----14----14---
|--14-16-18-------------14-16-18----------------------------------18----18----18----18
|-------------------------------------------------------------------------------------
|-------------------------------------------------------------------------------------
|-------------------------------------------------------------------------------------
|-------------------------------------------------------------------------------------

|--14-16-18------------------
|-----------------------16---
|-----------15-15-16-18----18
|----------------------------
|----------------------------
|----------------------------

|--21-18----18----------------------------------------18-21-18--------------
|--------19----19----19----------------------------19----------19-----------
|-----------------18----18----18----------------18----------------18--------
|--------------------------20----20----------20----------------------20-----
|-----------------------------------21-16-21----------------------------21--
|--------------------------------------------------------------------------16

|----------------------------
|----------------------------
|--18-20-20----20-18-18-20-18
|----------------------------
|--16-18-18-20-18-16-16-18-16
|----------------------------

|--------------9-13-9-------------------------13-18-13-------------
|-----------11--------11-------------------14----------14----------
|--------10--------------10-------------15----------------15-------
|-----11--------------------11-------15----------------------15----
|--13--------------------------13-16----------------------------16-
|------------------------------------------------------------------

|-----------------------------------13-------13-18-20-18-13------
|----------------------------------------------------------------
|--------13-18----13-18-20-14-18-20----18-20----------------20-18
|----------------------------------------------------------------
|--16-20-------20------------------------------------------------
|----------------------------------------------------------------

|-----------14-17-20----------------------------------------------------14-17-20-17-14
|-------------------------------------------------------------------------------------
|--14-17-20----------20-17-14----------------14-------14-17----14-17-20---------------
|-------------------------------------------------------------------------------------
|-----------------------------21-18-15-18-21----18-21-------21------------------------
|-------------------------------------------------------------------------------------

|----------
|----------
|--20-17-14
|----------
|----------
|----------

Guitar Tab Creator is intended to store guitar tab created through the tool. It currently does not support in-line text editing. Any text you place in here will be lost. If you need to comment on your tab, please use the "Tab Notes" section located below.