Thug Williams Guitar I Tab

D|-----------8--10-10h12---10h12--8h10---8---h-10-12-8-------------
A|--------10-10-10--10------10-----10------10----------10----------
F|-----9--9-----------------------------------------------9--------
C|--10-10---------------------------------------------------10-----
G|--12---------------------------------------------------------12-7
C|-----------------------------------------------------------------

|--------------------------------------------------------------------------
|--------------------------------------------------------------------------
|-----------------------------------9-5-----5-----------9-5-----5----------
|---------------------------------------9-5---9-5-----------9-5---9-5------
|-------------------------------------------------7/10----------------7/10-
|--5h7--5h7--0-0-0-0-0-0-0-3-5-7\0-----------------------------------------

|---------------------------------------------------------------------------
|---------------------------------------------------------------------------
|--------------5-7-9-5-----5-----------9-5-----5----------------------------
|--------5-7-9---------9-5---9-5-----------9-5---9-5-------------5-----5-7-9
|--5-7-9-------------------------7/10----------------7/10--5-7-9---7-9------
|---------------------------------------------------------------------------

|--------------------------------------------------------------------------
|--------------------------------------------------------------------------
|-----------------------------------9-5-----5-----------9-5-----5----------
|---------------------------------------9-5---9-5-----------9-5---9-5------
|-------------------------------------------------7/10----------------7/10-
|--5h7--5h7--0-0-0-0-0-0-0-3-5-7\0-----------------------------------------

|---------------------------------------------------------------------------------------
|---------------------------------------------------------------------------------------
|--------------5-7-9-5-----5-----------9-5-----5----------------------------------------
|--------5-7-9---------9-5---9-5-----------9-5---9-5-------------5-7-9-7-5-----------5-7
|--5-7-9-------------------------7/10----------------7/10--5-7-9-----------9-7-5-7-9----
|---------------------------------------------------------------------------------------

|-------
|-------
|----5-7
|--9----
|-------
|-------

|---------------------
|---------------------
|--12---12---10---10--
|--12---12---10---10--
|--10--------8--------
|--10---9----8----7---

|-------------------------------------------------------------------------------------
|--15-15-15-15-15-15-15-13-13-13-13-13-13-13-12-12-12-12-12-12-12-10-10-10-10-10-10-10
|--12-12-12-12-12-12-12-12-12-12-12-12-12-12-12-12-12-12-12-12-12-12-12-12-12-12-12-12
|-------------------------------------------------------------------------------------
|-------------------------------------------------------------------------------------
|-------------------------------------------------------------------------------------

|-------------------------------------------
|-------------------------------------------
|--5-5-5-7-9---------7----------------------
|------------5-5-5-5------------------------
|--3-3-3-5-7-5-5-5-5-5---------------3-3-3-3
|------------5-5-5-5---0-0-0-0-2-3-3-5-5-5-5

|-------------------------------------------------
|---------8----------6-5-----------8-----------6-5
|-------7----------5-------------7-----------5----
|-----9----------7-------------9-----------7------
|--10----------8------------10-----------8--------
|-------------------------------------------------

|--10-------10-------10-------12-------12----------------10-10-------10-------10------
|-----12-------12-------12-------12-------12-------------------12-------12-------12---
|--------14-------14-------14-------14-------14-11-12-14----------14-------14-------14
|-------------------------------------------------------------------------------------
|-------------------------------------------------------------------------------------
|-------------------------------------------------------------------------------------

|--12-------12-------14-------14-------15-------14-------15
|-----12-------12-------12-------12-------12-------12------
|--------14-------14-------14-------14-------14-------14---
|----------------------------------------------------------
|----------------------------------------------------------
|----------------------------------------------------------

|--15-15----------------------------7---10---15---19
|--------15-15----------------------8---12---15---15
|--------------16-16----------------7---12---16---16
|--------------------17-17--------------------------
|--------------------------17-17-14-----------------
|---------------------------------------------------

|-----------------------------------------------------------------5----------------
|-----------6-10-6--------------------------------------------------5---7----------
|--------10------------------------------10---------------------------5------------
|-----------3-7--3--------------------------7-3---3--------------------------------
|--------8-------------------------------8------7---7-3----------------------------
|--3-3-3-----------5-7-5-3-3-3-3-3-3-3-3----------------5-5-0-0-0---------3-3-3-3-3

|------------------5--------------------------
|--------------------5------------------------
|----------------------5-7--------------------
|---------------------------------------------
|---------------------------------------------
|--7-7-7-7-7-0-0-0---------3-3-3-3-3-7-7-7-7-7

|-------------------------------------------------------------------
|-------------------------------------------------------------------
|-------------------------------------------------------------------
|-------------------------------------------------------------------
|-------------------------------------------------------------------
|--6-6-6-6-6--6-6-6-6-6--6-6-6-6-6--6-6-6-6-6--6-6-6-6-6-3-3-3-3-3-3

|---------------------------------------------------
|---------------------------------------------------
|----------7-7-7-7-7-7-------------7-7-7-10-7-7-7-13
|---------------------------------------------------
|----------5-5-5-5-5-5-------------5-5-5-8--5-5-5-11
|--3/12--0-----------------3/12--0------------------

|--17-13----16b17-17--13----16b17--16b17--17-13----16b17--16b17-
|--------15---------------15---------------------15--------------
|----------------------------------------------------------------
|----------------------------------------------------------------
|----------------------------------------------------------------
|----------------------------------------------------------------

|-----------13-16-19-16-13------------------------------
|-------------------------------------------------------
|--13-16-19----------------19-16-13-16-19-16-13---------
|-------------------------------------------------------
|-----------------------------------------------20-17-14
|-------------------------------------------------------


Guitar Tab Creator is intended to store guitar tab created through the tool. It currently does not support in-line text editing. Any text you place in here will be lost. If you need to comment on your tab, please use the "Tab Notes" section located below.