Texas Toast Guitar Tab Part I

D|-------------------------------------
A|-------------------------------------
F|-------------------------------------
C|--------4-----------4-----------4----
G|--------------------------2-2-2---2-2
C|--4-4-4---4-4-7-7-7---7-7------------

|------------------------------------------
|------------------------------------------
|------------------------------------------
|----------12-11---------11-10---------10-9
|--9-11-12-------9-11-12-------9-11-12-----
|------------------------------------------

|----------------------
|-----------------13-12
|--------------14------
|-----------14---------
|--12-14-15------------
|----------------------

|--------------------
|--------------------
|--4-6-7-6-7-9-7-9-11
|--------------------
|--------------------
|--------------------

|-----------------------------------------------19-14----------------------------14
|--------------------------15-14-------15-14----------15----------------------15---
|--------------------------------16----------16----------16----------------16------
|--------------16----16-------------16----------------------16----------16---------
|--14-17-14-17----17----17-------------------------------------17-14-17------------
|----------------------------------------------------------------------------------

|--------------------------------------------------------------
|--------------------------------------------------------------
|--7---------6---------4----6----7----11----7----11-11-11-11-11
|--------------------------------------------------------------
|--5---------4---------2----4----5----9-----5----9--9--9--9--9-
|--------------------------------------------------------------

|--17-15-14-------14-------------------------------15-12-------12---------------------
|-----------17-15----17-15-14-17-15-14----15-14----------14-------14-------14---------
|--------------------------------------16-------16----------15-------15-12----15-12---
|-----------------------------------------------------------------------------------14
|-------------------------------------------------------------------------------------
|-------------------------------------------------------------------------------------

|--------------------------------------------------------------------------------14---
|-----------------------------------------------------------14-15-14----14-15-17----15
|--15-12-------------------------------------------------------------16---------------
|--------14-------------14-------14-16----14-16-17-14-16-17---------------------------
|-----------16-14-16-17----16-17-------17---------------------------------------------
|-------------------------------------------------------------------------------------

|--------------------14----17-14-------15-14-------17-14-------15-14------
|--15-14----14-15-17----15-------15----------15----------15----------15---
|--------16-------------------------14----------14----------14----------14
|-------------------------------------------------------------------------
|-------------------------------------------------------------------------
|-------------------------------------------------------------------------

|--21-17----------------------------17-21
|--------19----------------------19------
|-----------18----------------18---------
|--------------19----------19------------
|-----------------21-16-21---------------
|----------------------------------------

|-------------------------------------------------------------------------------------
|-------------------------------------------------------------------------------------
|--4-4---4-4---4-4---4-4---7-7---7-7---7-7---7-7---9-9---9-9---9-9---9-9---7-7---7-7--
|-------------------------------------------------------------------------------------
|--2-2---2-2---2-2---2-2---5-5---5-5---5-5---5-5---7-7---7-7---7-7---7-7---5-5---5-5--
|-------------------------------------------------------------------------------------

|-------------------------------------------------------------------------------------
|-------------------------------------------------------------------------------------
|--------------4----7--------------4-4---4-4---4-4---6-6---7--------------------------
|--9-9---9-9---4----7----0----9-------------------------------------------------------
|--------------2----5----0----9----2-2---2-2---2-2---4-4---5--------------------------
|--9-9---9-9--------5----0----9------------------------------0-0---0-0---0-0-0-0-0-0-0

|---------------------------
|---------------------------
|--9---9-----9-7------------
|--------------------7-7---7-7
|--7---7-----7-5-----7-7---7-7
|----2---2-2-----0-0-7-7---7-7

|---------------------
|--10-----------------
|------------9--------
|--7------------------
|------------7--------
|---------------------

|--------------7-----------------------9-------
|----------7-7-------------------10-10---------
|------7-7-----------------11-11---------------
|--9-9---------------12-12---------------------
|----------------------------------------------
|----------------------------------------------

|-------------------------------------------------------------
|--10-10-12-14-12-12-12-14-15-10-12-12-14-15-14-14-14-15-17-12
|-------------------------------------------------------------
|--7--7--9--11-9--9--9--11-12-7--9--9--11-12-11-11-11-12-14-9-
|-------------------------------------------------------------
|-------------------------------------------------------------

|----------------------------------------------------
|--10-10-12-14-12-12-14-14-15-17-19-15-19-15-17-15-17
|----------------------------------------------------
|--7--7--9--11-9--9--11-11-12-14-16-12-16-12-14-12-14
|----------------------------------------------------
|----------------------------------------------------
Guitar Tab Creator is intended to store guitar tab created through the tool. It currently does not support in-line text editing. Any text you place in here will be lost. If you need to comment on your tab, please use the "Tab Notes" section located below.