Steal Her Face Guitar Tab I

|----0-------0------------------------------------
|--1-------3-----------0-------0-------0-------0--
|----0-------0-------5---5---5---5---5---5---5---5
|--3-------5-------7-------7-------7-------7------
|-------------------------------------------------
|-------------------------------------------------

|------------------------------------------------7-10-7-----7------------
|----------------------------------------------8--------8-----8-----8----
|--------------------------------7-----------7------------7-----7-----7--
|-----------7------7-9----7-9-10---10-9----9----------------------9-----9
|--8-7-8-10---8-10-----10---------------10-------------------------------
|------------------------------------------------------------------------

|-------------8----8---------------8----8---------------8----8---------------12-10-12-8
|----------10---12---10---------10---12---10---------10---12---10---------10-----------
|--------9--------------------9--------------------9--------------------9--------------
|-----10-------------------10-------------------10-------------------10----------------
|--12-------------------12-------------------12-------------------12-------------------
|--------------------------------------------------------------------------------------

|-------------8-------8-10----8-10-12-10-8-------10-12-10----------------------12-15-17
|---------------------------------------------------------13-12-12-13-12-10-13---------
|--10-9-10-12---10-12------12--------------10-12---------------------------------------
|--------------------------------------------------------------------------------------
|--------------------------------------------------------------------------------------
|--------------------------------------------------------------------------------------

|--19-20
|-------
|-------
|-------
|-------
|-------

|------------------1---------------------------------------------------------------
|--------------------1-------------------------------------------------------------
|----------------------0-2-0--------------5-5-5-5-9-9-9-9--------------------------
|--------3-5-7-5-3-----------3----------------------------------------5-----------5
|------3-----------------------3----------3-3-3-3-7-7-7-7-------5-----------5------
|--3-7---------------------------5-5/7--5-----------------8-8-8---8-8---8-8---8-8--

|------------------------------------------------------------------------------------
|------------------------------------------------------------------------------------
|----------------------------------------------------------------------12------------
|-------------------7---------------7-------------------------12-14-15----15-14-12-14
|-----------7---------------7--------------------------------------------------------
|--10-10-10---10-10---10-10---10-10---12-12-12-12-12-12-12-12------------------------

|--------------------------------------12-15-12----6--------------------------
|-----------------------------------13----------13---6------------------------
|--------------------------------12--------------------5-7-9-7-5--------------
|--------12-------14----------14---------------------------------8------------
|--------------------------15--------------------------------------8-3-5-7-5-3
|--10-10----10-10----10-10----------------------------------------------------

|------------------------------------5-6-5-------5-8-5-8-3-----3----------------------
|--------------------------------6---------6---6-----------5-----5-----5--------------
|--9-9-9-9-10-10-10-10-------7-----7---------7---------------5-----5-----5-----5------
|------------------------7-----7-------------------------------------5-----5-----5----
|--7-7-7-7-8--8--8--8--5---8-------------------------------------------------7-----7-3
|-------------------------------------------------------------------------------------

|-----------
|-----------
|-----------
|------3-5-7
|--5-7------
|-----------

|----------------------------------------------------------------------------------
|----------------------------------------------------------------------------------
|--3-3-3-3-----3-3-3-3-----3-3-3-3-----3-7-3-10-7-7-7-7-----7-7-7-7-----10-10-10-10
|--3-3-3-3-----3-3-3-3--------------------------7-7-7-7-----7-7-7-7----------------
|--1-1-1-1-----1-1-1-1-----1-1-1-1-----1-5-1-8--5-5-5-5-----5-5-5-5-----8--8--8--8-
|----------------------------------------------------------------------------------

|----------------------------------------------------------------------------------
|----------------------------------------------------------------------------------
|--5-5-5-5-----5-5-5-5-----2-2-2-2-----3-3-3-3-----3-3-3-3-----7-7-7-7-----3-7-3-10
|--5-5-5-5-----5-5-5-5-----2-2-2-2-----3-3-3-3-----3-3-3-3-------------------------
|--3-3-3-3-----3-3-3-3-----0-0-0-0-----1-1-1-1-----1-1-1-1-----5-5-5-5-----1-5-1-8-
|----------------------------------------------------------------------------------

|---------------------------------------------------------
|---------------------------------------------------------
|--7-7-7-7-----7-7-7-7-----10-10-10-10-5-5-5-5-5-5-2-2-2-2
|--7-7-7-7-----7-7-7-7-----------------5-5-5-5-5-5-2-2-2-2
|--5-5-5-5-----5-5-5-5-----8--8--8--8--3-3-3-3-3-3-0-0-0-0
|---------------------------------------------------------

|-----13------------------------------------------------------------------------------15
|--------15----------------------18-17-15-18-17-15-15-17------18-17-15-18-17-15-17-18---
|-----------15----------15----17-------------------------17-----------------------------
|--------------15-----------------------------------------------------------------------
|-----------------17-13----13-----------------------------------------------------------
|---------------------------------------------------------------------------------------

|---------------------------------------------------------------------------------------
|--18-17-18------------------------------------------------------------15-18-15-20-15-18
|-----------17---17-17-19-17-17-19-17-17-19-14-17-14-14-17-14-14-17-14------------------
|---------------------------------------------------------------------------------------
|---------------------------------------------------------------------------------------
|---------------------------------------------------------------------------------------

|-----------------------------------------------------------15-------15-17-------15-20
|--15-20-18-17-15-18-17-15-15-17----18-17-15-18-17-15-17-18----17-18-------17-18------
|--------------------------------17---------------------------------------------------
|-------------------------------------------------------------------------------------
|-------------------------------------------------------------------------------------
|-------------------------------------------------------------------------------------

|--------------------------------------------------------------------------------
|--------------------------------------------------------------------------------
|--12------10------14------12--------------12------10------14------15-15-15-15-12
|----------8---------------10----------------------8---------------------------10
|--10------8-------12------10--------------10------8-------12------13-13-13-13-10
|--8-------8-------10------10------7-7-7-7-8-------8-------10------------------10

|-------------------
|-------------------
|-------------------
|-------------------
|-------------------
|--7-7-7-7-7-7-7-7-7

|--------------------------------------------13------------------------------------------
|----------------------------------------------------------------------------------------
|--------17-------17-14-15-14----14-15-17-17----17-------17-------17-14-15-14----14-15-17
|-----15-------15-------------17----------------------15-------15-------------17---------
|--13-------13-------------------------------------13-------13---------------------------
|----------------------------------------------------------------------------------------

|-----13----------------------------20-------20-------20----15-------15-------15------
|-----------------18-------18----18-------18-------18----18----18-------18-------18---
|--17----17----17-------17----17-------17-------17----------------17-------17-------17
|-----------15-------15---------------------------------------------------------------
|-------------------------------------------------------------------------------------
|-------------------------------------------------------------------------------------

|--15-17-15-------15---
|-----------18---------
|--------------17----17
|----------------------
|----------------------
|----------------------

|---------------------------------------------------------------------------------------
|---------------------------------------------------------------------------------------
|---------------------------------------------------------------------------------------
|---------------------------------------------------------------------------------------
|--------10-----------8-------------------8-------------------8--------------12---------
|--8-8-8----8-8-8-8-8---8-8---8-8-8-8-8-8---8-8---8-8-8-8-8-8---8-8-10-10-10----10-10-10

|-----------------------------------------------------------------------------
|-----------------------------------------------------------------------------
|-----------------------------------------------------------------------------
|-----------------------------------------------------------------------------
|--------10---------------------------10--------------------------------------
|--10-10----10-10---10-10-10-10-10-10----10-10---10-10-10-10-10-10-7-7-7-7-7-7

|---------------------------------------------------------------------------------------
|---------------------------------------------------------------------------------------
|---------------------------------------------------------------------------------------
|---------------------------------------------------------------------------------------
|--------10-----------8-------------------8-------------------8--------------12---------
|--8-8-8----8-8-8-8-8---8-8---8-8-8-8-8-8---8-8---8-8-8-8-8-8---8-8-10-10-10----10-10-10

|-----------------------------------------------------------------------------
|-----------------------------------------------------------------------------
|-----------------------------------------------------------------------------
|-----------------------------------------------------------------------------
|--------10---------------------------10--------------------------------------
|--10-10----10-10---10-10-10-10-10-10----10-10---10-10-10-10-10-10-14-14-14-14-14-14

|-----------15----------------------------------15----------------15-17----15
|--15-17-18----18-17-15-15-17-15-17-13-15-17-18----18-17-15-15-17-------18---
|----------------------------------------------------------------------------
|----------------------------------------------------------------------------
|----------------------------------------------------------------------------
|----------------------------------------------------------------------------

|-----------15----------------------------------------------15
|--15-17-18----18-17-15-15-17-15-17-13-13-15-15-17-17-18-18---
|-------------------------------------------------------------
|-------------------------------------------------------------
|-------------------------------------------------------------
|-------------------------------------------------------------

|---------------------------------------------------------------------------------------
|---------------------------------------------------------------------------------------
|---------------------------------------------------------------------------------------
|--3-3-3----3-3-3--------------------------------7-7-7----------------------------------
|--3-3-3----3-3-3--------------------5-3---7-3---7-7-7----------------------------------
|--3-3-3----3-3-3-----3-3-3-3-7-5--------5-----5-7-7-7-----5-5-5-5-7-5-----7-7-7---7-7-7

|---------------------------------------------------------------------------------------
|----------------------------------------------12-13-12---------------------------------
|-------------------------------------------12-------------------12-------12-14----12-14
|-------------7----3-3-3----3-3-3--------12---------------------------------------------
|---------5-7-7----3-3-3----3-3-3-----14----------------10-14-17----14-17-------17------
|--7-9-10-----7----3-3-3----3-3-3-------------------------------------------------------

|-------------------------------------------------------------------
|-----17----13-17----13-17----13-15----12-15----12-15----12-15----12
|--16----16-------16-------16-------14-------14-------14-------14---
|-------------------------------------------------------------------
|-------------------------------------------------------------------
|-------------------------------------------------------------------

|--------------------------------------------------12-15-17-15-12------------------------
|----------------------------------------------------------------------------------------
|-----------12-14-16-14-12----------------12-14-16----------------16-14-12-14-16-14-12---
|----------------------------------------------------------------------------------------
|--12-14-15----------------15-14-12-14-15----------------------------------------------15
|----------------------------------------------------------------------------------------

|-------
|-------
|-------
|-------
|--14-12
|-------

|-------------------------------------------------------------------------
|-------------------------------------------------------------------------
|-------------------------------------------------------------------------
|----------------------------------7-7-7-----------7-5---7-7---7-7---5-7-5
|------3-5-7-5-3-5-------5-7-5-3-5-7-7-7-----------7-5---7-7---7-7---5-7-5
|--3-7-------------5-7-5-----------7-7-7---5-5-5-5-7-5---7-7---7-7---5-7-5

|-------------------------------------------------------------------
|-------------------------------------------------------------------
|-------------------------------------------------------------------
|-------------------------------------------------------------------
|------3-5-7-5-3-5-------3-5-7-5-3-5-------3-5-5-3-5-------5-7-5-3-5
|--3-7-------------5---5-------------7---7-----------5-7-5----------

|------------------------------------------------------------------------12----17
|---------------------------------------------------------------13----13----13---
|--------------------7-9-7-9-7---5-5---5-7----7-9----9-14----14----14------------
|------------------5-----------9-----9-----10-----10------14---------------------
|------3-5-7-5-3-5---------------------------------------------------------------
|--3-7---------------------------------------------------------------------------

|--17-17-19-17-15-17-12-10-10-12-10-8-7-8-7-5---5-7-8-7-10-12-10-12-10-8-10-12-15-17-20
|--------------------------------------------------------------------------------------
|--------------------------------------------------------------------------------------
|--------------------------------------------------------------------------------------
|--------------------------------------------------------------------------------------
|--------------------------------------------------------------------------------------
Guitar Tab Creator is intended to store guitar tab created through the tool. It currently does not support in-line text editing. Any text you place in here will be lost. If you need to comment on your tab, please use the "Tab Notes" section located below.