Russian Burlette

	(/) Slide Up  (\) Slide Down  (h) Hammer On  (p) Pull Off  (b) Bend (r) Release (v) Vibrato

E|--------------------------------------------------------------------------------------------
B|--------------------------------------------------------------------------------------------
G|--------------------------------------------------------------------------------------------
D|--------------------------------------------------------------------------------------------
A|--------------------------------5-----------5-----------------------------------5-----5--9--
E|--0--0--2--0--0--2--0--0--5--7-----7--4--4-----7--0--0--2--0--0--2--0--0--5--7-----7--------



E|----------------------------------------------------------------------------------------
B|----------------------------------------------------------------------------------------
G|----------------9-----------------------------------------------------------------------
D|------7--9--12--------------------------------------------------------------------------
A|--12---------------------------------------------5-----------5-----------------2--0-----
E|-------------------0--0--2--0--0--2--0--0--5--7-----7--4--4-----7--2--2--2--5-----------



E|--------------------------------------------------------------------------------------
B|--------------------------------------------------------------------------------------
G|--------------------------------------------------------------------------------------
D|--------------------------------------------------------------------------------------
A|-----------------2--0--------------------------2--0-----------------2--0-----5--5--5--
E|--0--0--0--2--5--------5--7--7--5--2--2--2--5--------0--0--0--2--5--------5--7--7--7--



E|-------------------------------------------------------------------------------------------
B|-------------------------------------------------------------------------------------------
G|--------------------------7/11--11--11\7---------------------------------------------------
D|-------------------------------------------------------------------------------------------
A|--7--7--------------------5-9---9---9--5--7--9---7--5--3-----------2--3--0-----------2--3--
E|--9--9--0--0--0--2--0--0------------------9--12--9--7--5--2--4--5-----------2--4--5--------



E|----------------------------------------------------------------------------------------
B|----------------------------------------------------------------------------------------
G|----------------------------------------------------------------------------------------
D|-----------------------------------------------------------5--7--9------------7--9--12--
A|-----5--5--3-----------2--3--0-----------2--3-----5--7--9-----------7--9--10------------
E|--0--7--7--5--2--4--5-----------2--4--5--------0----------------------------------------



E|-------------------------------------------------------------------------------------------
B|-------------------------------------------------------------------------------------------
G|--------------------------7/11--11--11\7---------------------------------------------------
D|-------------------------------------------------------------------------------------------
A|--7--7--------------------5-9---9---9--5--7--9---7--5--3-----------2--3--0-----------2--3--
E|--9--9--0--0--0--2--0--0------------------9--12--9--7--5--2--4--5-----------2--4--5--------



E|-------------------------------------------------------------------------------------------
B|-------------------------------------------------------------------------------------------
G|-------------------------------------------------------------------------------------------
D|-----------------------------------------------------------5--7--9------------7--9--10-----
A|-----5--5--3-----------2--3--0-----------2--3-----5--7--9-----------7--9--10---------------
E|--0--7--7--5--2--4--5-----------2--4--5--------0-------------------------------------------



E|------------------------------------------------
B|------------------------------------------------
G|------------------------------------------------
D|-------------9--10--12--------------10--12--14--
A|--9--10--12-------------10--12--14--------------
E|------------------------------------------------



E|---------------------------------------------------------------------------
B|-----------8-----------------13------------------12---------------0-----0--
G|--------9-----9----------14------14----------12------12--------5-----5-----
D|-----9---------------14------------------12-----------------7--------------
A|--7--------------12------------------10------------------9-----------------
E|---------------------------------------------------------------------------



E|-----------------------0--------------------------
B|-----------8--------3--------------4-----------4--
G|--------9--------0--------------4-----------4-----
D|-----9-----------------------4-----------4--------
A|--7-----------3-----------2-----------6-----------
E|--------------------------------------------------



E|---------------7-----8-----8--7------7---------7---------------------------------------------
B|-----7--8--10--------------------10-----10--8-----10--8--7--12--10--12--8--12--7--12-----12--
G|--9---------------9-----9-------------------------------------------------------------8------
D|---------------------------------------------------------------------------------------------
A|---------------------------------------------------------------------------------------------
E|---------------------------------------------------------------------------------------------



E|-----------7-----------7-----------8-----------8--7------7--8--7------7--8--11--8--7---------
B|-----7--8--------7--8--------7--8--------7--8--------10-----------10------------------10-----
G|--9-----------9-----------9-----------9------------------------------------------------------
D|---------------------------------------------------------------------------------------------
A|---------------------------------------------------------------------------------------------
E|---------------------------------------------------------------------------------------------



E|--8--7---------7-------------------------
B|--------10--8-----10--8--7--10--8--7-----
G|--------------------------------------8--
D|-----------------------------------------
A|-----------------------------------------
E|-----------------------------------------



E|--12--7--------12--7-----------------------------------------7-------------------8---------
B|---------8------------8------------------8-------------------------------------------------
G|------------9------------9--8--8--9--11-----11--9--8--9--11-----11--9--8--9--11-----11-----
D|-------------------------------------------------------------------------------------------
A|-------------------------------------------------------------------------------------------
E|-------------------------------------------------------------------------------------------



E|-------------------------------------------------------11--11--11--11--11--
B|---------------------------------------10----------10--15--15--15--15--15--
G|--9--8--9--11--8--9--11/12--9--11--12------11--12--------------------------
D|---------------------------------------------------------------------------
A|---------------------------------------------------------------------------
E|---------------------------------------------------------------------------



E|----------------------------------------------------------------------------------------
B|----------------------------------------------------------------------------------------
G|----------------------------------------------------------------------------------------
D|----------------------------------------------------------------------------------------
A|-----------2---------------7---------------5--------------------------------------2-----
E|--2--2--5-----5--7--7--10-----10--5--5--9-----9--2--4--4--4--4--4--4--4--2--2--5-----5--



E|--------------------------------------------------------
B|--------------------------------------------------------
G|--------------------------------------------------------
D|-----------5--------------------------------------------
A|--3--3--7-----7--2--2--2--2--2--2-----------------------
E|-----------------------------------1--1--1--1--1--1--1--



E|-------------------------------------------------------------------------------
B|-------------------------------------------------------------------------------
G|-------------------------------------------------------------------------------
D|----------------------------------------------------------------------------7--
A|-----------------------------2--2-----3--2--3--5--7--5--7--9--10--7--9--10-----
E|--2--1--2--1--2--4--5--4--5--------5-------------------------------------------



E|---------------------------------------------------------7---------------------7----------
B|------------------------------------------10--------------------10--------------------10--
G|------------7--9--12------------7--9--12------12--9--12-----12------12--9--12-----12------
D|--7--9--12------------7--9--12------------------------------------------------------------
A|------------------------------------------------------------------------------------------
E|------------------------------------------------------------------------------------------



E|------------------------------------------------------------------------------
B|------------------------------------------------------------------------------
G|--12--9--12--7--12--9--12--7--4--5--7--5--4-----5--4--------------------------
D|---------------------------------------------7--------7--5--7--5--4-----------
A|---------------------------------------------------------------------7--6-----
E|------------------------------------------------------------------------------



E|------------------7--12--7--------15--12----------19--15-------------------------------------
B|---------------8------------8-------------12--------------17---------------------------------
G|------------9------------------9--------------12--------------16----------------------17-----
D|---------9--------------------------------------------------------17--------------17---------
A|--7--10---------------------------------------------------------------19--15--19-------------
E|---------------------------------------------------------------------------------------------



E|------15--20--15-----------------------------------------------------------------------------
B|--17--------------17----------------------------------17----------17--19------17--19--20-----
G|----------------------17--------------16--17--19--20------19--20----------20-----------------
D|--------------------------17-----------------------------------------------------------------
A|------------------------------19--15---------------------------------------------------------
E|---------------------------------------------------------------------------------------------



E|--------------17--19--20--19--17----------------------17--19--20/23--
B|--17--19--20----------------------20--19--17--19--20-----------------
G|---------------------------------------------------------------------
D|---------------------------------------------------------------------
A|---------------------------------------------------------------------
E|---------------------------------------------------------------------



E|-----------------------------------------------------------------------------------------
B|-----------------------------------------------------------------------------------------
G|-----------------------------------------------------------------------------------------
D|--2--2--2--2--7--7--7--7--7--5--5--5--5--4--4--4--------------------2--2--2--2--2--------
A|--2--2--2--2--7--7--7--7--7--5--5--5--5--4--4--4--------------------2--2--2--2--2--3--3--
E|--2--2--2--2--7--7--7--7--7--5--5--5--5--4--4--4--4--4--4--4--4--4--2--2--2--2--2--5--5--



E|-----------------------------------------------------------------------------------------
B|-----------------------------------------------------------------------------------------
G|-----------------------------------------------------------------------------------------
D|--------------------------1--1--1--------------------5--5--5--5--5--5--5--5--10--10--10--
A|--3--3--3--2--2--2--2--2--1--1--1--------------------2--2--2--2--2--2--2--2--7---7---7---
E|--5--5--5--4--4--4--4--4--1--1--1--1--1--1--1--1--1--2--2--2--2--2--2--2--2--7---7---7---



E|---------------------------------------------------------------------------------------
B|---------------------------------------------------------------------------------------
G|-------------------------------------------------------------------------------5----4--
D|--10--10--10--10--10--9--9--9--9--9--9--9--9--7--7--7--7--7--7--7--7--5--------5----4--
A|--7---7---7---7---7---5--5--5--5--5--5--5--5--4--4--4--4--4--4--4--4--2--------3----2--
E|--7---7---7---7---7---5--5--5--5--5--5--5--5--4--4--4--4--4--4--4--4--2----------------



E|-----
B|-----
G|-----
D|--4--
A|--2--
E|--1--
Guitar Tab Creator is intended to store guitar tab created through the tool. It currently does not support in-line text editing. Any text you place in here will be lost. If you need to comment on your tab, please use the "Tab Notes" section located below.