Riff Ramp Bounce Tabs (Main Guitar and Bass Parts)

|-----------10-------10-12----10-12-13-10-10----12-13-12-10-10----12-13-12---------------
|--------10-------10-------10----------------10----------------10----------14-14-14-14-14
|-----10-------10------------------------------------------------------------------------
|--12------------------------------------------------------------------------------------
|----------------------------------------------------------------------------------------
|----------------------------------------------------------------------------------------

|--------------------------------------------10-------10-12----10-12-13
|--14-14-14-10-10-10-14-14-14-14-14-------10-------10-------10---------
|--------------------------------------10-------10---------------------
|-----------------------------------12---------------------------------
|----------------------------------------------------------------------
|----------------------------------------------------------------------

|--15--------13---------12-----------17----------
|------------------------------------------------
|------------------------------------------------
|------------------------------------------------
|------------------------------------------------
|------------------------------------------------

|--------------------------------------------------------------------------------------
|--------------------------------------------------------------------------------------
|------------------------------7-----10-7----------------------------------------------
|------------------7-7-----------7--------7--------------------------------------------
|--5-5-5---5-8-8-5-----8-5---5-----8--------0-0-0---0-10-12-12-12-10-12-12-12-4-4-4---4
|--------------------------------------------------------------------------------------

|------------------------------------------------------------------------------
|------------------------------------------------------------------------------
|--------------------------------------------------7-----10-7---14-10----------
|----------------------------------------7-7---------7--------7----------------
|--10-12-12-12-10-12-12-12-5-5-5-5-8-8-5-----8-5-5-----8--------------0-0-0---0
|------------------------------------------------------------------------------

|--------------------------------------------------------
|--------------------------------------------------------
|--------------------------------------------------------
|------------------------------------------------------12
|--10-12-12-12-10-12-12-12-4-4-4---4-10-12-12-12-12-13---
|--------------------------------------------------------

|-------------------------------------------------------------------------------------
|--------------------------------------------------------------------------------10---
|--10-9-10-7-10-9---10-9-10-7-10-9---10-9-10-6-10-9---10-9-10-6-10-9---10-9-10-7----10
|-------------------------------------------------------------------------------------
|-------------------------------------------------------------------------------------
|-------------------------------------------------------------------------------------

|---------------------------------------------------------
|------------10--------------------------10-11-10-10-11-10
|--10-9-10-7----10---10-12-10-12-10-12--------------------
|---------------------------------------------------------
|---------------------------------------------------------
|---------------------------------------------------------

|--10--------8----------10--------13--------12----------12
|---------------------------------------------------------
|--7---------5----------7---------10--------9-----------9-
|---------------------------------------------------------
|---------------------------------------------------------
|---------------------------------------------------------

|--------------------------------------------------------------------------------------
|--------------------------------------------------------------------------------------
|--7-7-9-9-10-10-12-12-14-12-10-7---7-7-9-9-10-10-12-12-14-12-9-7-9---7-9-9-10-10-10-12
|--------------------------------------------------------------------------------------
|--------------------------------------------------------------------------------------
|--------------------------------------------------------------------------------------

|-------------------------------------------
|-------------------------------------------
|--12-10-12---5-7-7-9-9-9---14---14-14-15-14
|-------------------------------------------
|-------------------------------------------
|-------------------------------------------

|----------------------------------------------------------
|----------------------------------------------------------
|--7-7-7-6-7-8-7-------------------------------------------
|------------------8----8----8-----8----7-5----------------
|-------------------------------------------8-7-5-5-5-4-4-4
|----------------------------------------------------------

|--------------------------------------------------------
|--------------------------------------------------------
|--7-7-7-6-7-8---10-10-10-14-14-14-12-10-10-9-7-7-7-6-6-6
|--------------------------------------------------------
|--------------------------------------------------------
|--------------------------------------------------------

|------------------------------------------------------------------------------
|------------------------------------------------------------------------------
|--7-7-7-6-7-8-7---7---7---10-10---10---14----14-12----12-10---10-9---9-7---6--
|------------------------------------------------------------------------------
|----------------5---5---5-------8----8----12-------10-------8------7-----5---4
|------------------------------------------------------------------------------

|--------------------13-17-13-------13---------------------------------------------
|-----------14-15-17----------15-------15-------15---------------------------------
|--14-15-17----------------------14-------14-------14-------------12-14-15-12-14-12
|--------------------------------------------15-------15-12-14-15------------------
|----------------------------------------------------------------------------------
|----------------------------------------------------------------------------------

|-----------------17-15-13-15-13-12-------17-13----------13-17-13-------13-----17
|--15-17-14-15-14-------------------------------15----15----------15-------------
|--------------------------------------------------14----------------14----------
|--------------------------------------------------------------------------------
|--------------------------------------------------------------------------------
|--------------------------------------------------------------------------------

|--17-13----------13-17-18-17-13-------------------------------------------------15-17-15
|--------15----15----------------15-------------------------------------15-17-18---------
|-----------14----------------------14-------------------------14-15-17------------------
|--------------------------------------15-------------14-15-17---------------------------
|-----------------------------------------17-13-15-17------------------------------------
|----------------------------------------------------------------------------------------

|-------
|--18-17
|-------
|-------
|-------
|-------

|------------------------------------------------------------------------------------
|------------------------------------------------------------------------------------
|----------------7-9-10-9-7----------------------------------------------------------
|--------------7------------7--------------------------------------------------------
|--5-5-5-5-7-8--------------------------------------------------------8-8-8-8-8-8-8-8
|-----------------------------7-10-7-7-7-10-7-10-7-7-7-10-8-8-8-8-8-8----------------

|--------------------------------------------------------
|--------------------------------------------------------
|--------------------------------------------------------
|--------------------------------------------------------
|--3-3-3-3-3-3-7-7-7-7-7-7-----------5---------8--------3
|--------------------------8-----------------------------
Guitar Tab Creator is intended to store guitar tab created through the tool. It currently does not support in-line text editing. Any text you place in here will be lost. If you need to comment on your tab, please use the "Tab Notes" section located below.